Jet - Cold Hard Bitch Chords & Tabs

 

Cold Hard Bitch Chords & Tabs

Jet Chords & Tabs

Version: 2 Type: Bass Tab 0 ratings
1 star 2 stars 3 stars 4 stars 5 stars
comments

Cold Hard Bitch Bass Tab

   
One little typo and the whole Break is off. Enjoy!
-------------------------------------------------------------------------------
			     Cold Hearted Bitch - Jet
-------------------------------------------------------------------------------

Tabbed By : CandyForNixon
e-mail: CandyForNixon@yahoo.com

Tuning:standard


Intro

G|---------|---------|--------|------|---------------------------------------|
D|---------|---------|--------|------|---------------------------------------|
A|---------|--X12----|--------|--X4--|5-5------------------------------------|
E|55555555-|---------|5-5-5-5-|------|----5-5--------------------------------|

G|---------------------------------------------------------------------------|
D|---------------------------------------------------------------------------|
A|---------------------------------------------------------------------------|
E|3333333333333333/15-15-15-15-15-15-15-15-15-15-15-15-15-15-15--------------|


Verse
                                           Gotta Leave Town.....
G|---------------------|-----|---------------------|-------------------------|
D|---------------------|-----|-------------5-------|-------------------------|
A|-------------------5-|-X-4-|---------------5-----|--X2---------------------|
E|5--5-5----0-3-0-3----|-----|-0-3-0-3--5------5-5-|-------------------------|


Bridge
[ Tab from: http://www.guitartabs.cc/tabs/j/jet/cold_hard_bitch_btab_ver_2.html ]
G|---------------------------------------------------------------------------|
D|---------------------------------------------------------------------------|
A|-5-(let ring)----7-(let ring)----3-(let ring)------------------------------|
E|---------------------------------------------------------------------------|

G|---------------------------------------------------------------------------|
D|---------------------------------------------------------------------------|
A|-5-5--3h5-3h5-3h5----3h5-3h5-----------------------------------------------|
E|---------------------------------------------------------------------------|

Chorus

G|---------------------------------------------------------------------------|
D|---------------------------------------------------------------------------|
A|-----------5--5-----------------------5----5r------------------------------|
E|-5--5-3--3------1-1--3-3----5--5-3--3----------1/5-------------------------|

Break

G|----------------|------|-----------------------|---------------------------|
D|----------------|------|------5----------------|---------------------------|
A|-5--------------|--X3--|-------5--5------------|--X5-----------------------|
E|---5-3-5--0-3-5-|------|-5-3-------5-3-5----0-3|---------------------------|

Song Structure:

Intro
Verse
Bridge
Chorus
Verse
Bridge
Chorus
Break
Intro (modified)
Chorus


The variation of the intro (outro) can be easily figured out.  
It's basically the same as the Intro.

| /  slide up
| \  slide down
| h  hammer-on
| p  pull-off
| ~  vibrato
| +  harmonic
| x  Mute note
===============================================================================
Comments