Jet - Black Hearts On Fire Chords & Tabs

 

Black Hearts On Fire Chords & Tabs

Jet Chords & Tabs

Version: 1 Type: Bass Tab 0 ratings
1 star 2 stars 3 stars 4 stars 5 stars
comments

Black Hearts On Fire Bass Tab

Artist - Jet
Song - Black Hearts On Fire
Album - Shaka Rock

Intro
( After the Guitar and Drums do a little intro play this )

G|--------------|
D|--------------|
A|-11----1------|
E|----1---------|

Verse

G|----------------------------------3h5----|
D|-----------------------------------------|
A|-3-33-3-33-5-------1111----3-33----------|
E|-------------3-33--------1---------------|

G|-----------------------------------------|
D|-----------------------------------------|
A|-3-33-3-33-5------1111---33333333333-----|
E|-------------3-33------1-----------------|

Pre-Chorus

G|----------------------------|
D|----------------------------|
A|-10--10/13--13/15--15\10----|
E|----------------------------|
[ Tab from: http://www.guitartabs.cc/tabs/j/jet/black_hearts_on_fire_btab.html ]
G|---------------------------------------------------------|
D|---------------------------------------------------------|
A|-1010101010101010-1313131313131313-1515151515151515-10---|
E|---------------------------------------------------------|

( Those are 10's, 13's and 15's. Not 1's and 0's )

Chorus

G|------------------------------------------|
D|------------------------------------------|
A|----------1-11111--3-33333----------------|
E|-3-33333--------------------3-33333-------|

G|------------------------------------------|
D|------------------------------------------|
A|---------1-11111--3-33333--5-66666666-----|
E|-3-33333----------------------------------|

Second Verse
( Just like the first verse except with a few extra C's )
( A|3 for you not so music savvy :P )

Pre-Chorus

Chorus

Build-Up...

G|-----------------------------|
D|-----------------------------|
A|---------11111111-55555555---|
E|-33333333--------------------|

Guitar Solo

( Yeah..i don't have this part.. )

Chorus

As this was a rushed project due to a snow day from school,
there are some mistakes.
Feel free to correct me in the comments!
Cheers!
Comments