Jet - Are You Gonna Be My Girl Chords & Tabs

 

Are You Gonna Be My Girl Chords & Tabs

Jet Chords & Tabs

Version: 7 Type: Tab 0 ratings
1 star 2 stars 3 stars 4 stars 5 stars
comments

Are You Gonna Be My Girl Tab

   
Notes - The song is supposed to use barre chords, but when using a hefty bit of
distortion it can sound a little fuzzy (couldn't think of any other word??). So it
sounds just as good with powerchords, or just make the barre chord shape and strum
the first 3 strings (which is pointless, but what I end up doing). Oh, and this is
played with two guitars. Although I've only covered one. I think the second guitar
pretty much does what the 1st one does, except it covers the solo and there's a
slight variation at the end.

INTRO

                                             D U D U D
E |---------------------  E |--5-5-5-x-5-5-x-5-5-5-5-5--|
B |----5-7b9-7b9-5------  B |--5-5-6-x-5-5-x-5-5-5-5-5--|
G |--7-5-7b9-7b9-5-7-5--  G |--6-6-6-x-6-6-x-6-6-6-6-6--| x3
D |--7-------------7-5--  D |--7-7-7-x-7-7-x-7-7-7-7-7--|
A |---------------------  A |--7-7-7-x-7-7-x-7-7-7-7-7--|
E |---------------------  E |--5-5-5-x-5-5-x-5-5-5-5-5--|

VERSE 1


"So 1, 2, 3, take my hand..."
                   D U D U D
E |--5-5-5-x-5-5-x-5-5-5-5-5-|
B |--5-5-6-x-5-5-x-5-5-5-5-5-|
G |--6-6-6-x-6-6-x-6-6-6-6-6-|
D |--7-7-7-x-7-7-x-7-7-7-7-7-|
A |--7-7-7-x-7-7-x-7-7-7-7-7-|
E |--5-5-5-x-5-5-x-5-5-5-5-5-|

"I said you look so fine..."
                   D U D U D
E |--5-5-5-x-5-5-x-5-5-5-5-5-|
B |--5-5-6-x-5-5-x-5-5-5-5-5-|
G |--6-6-6-x-6-6-x-6-6-6-6-6-|
D |--7-7-7-x-7-7-x-7-7-7-7-7-|
A |--7-7-7-x-7-7-x-7-7-7-7-7-|
E |--5-5-5-x-5-5-x-5-5-5-5-5-|

"4, 5, 6, come on and get your kicks..."
                   D U D U D
E |--5-5-5-x-5-5-x-5-5-5-5-5-------------------|
B |--5-5-6-x-5-5-x-5-5-5-5-5----5-7b9-7-5------|
G |--6-6-6-x-6-6-x-6-6-6-6-6--7-5-7b9-7-5-7-5--|
D |--7-7-7-x-7-7-x-7-7-7-7-7--7-----------7-5--|
A |--7-7-7-x-7-7-x-7-7-7-7-7-------------------|
E |--5-5-5-x-5-5-x-5-5-5-5-5-------------------|

I'm not too sure about the next bit, but the drums and bass play a big part in the rhythm of this part.

"Big black boots..."
E |--5-5-5-xxxx-|
B |--5-5-6-xxxx-|
G |--6-6-6-xxxx-| x4
D |--7-7-7-xxxx-|
A |--7-7-7-xxxx-|
E |--5-5-5-xxxx-|

CHORUS

                   D U D U D                D U D U D                D U D U D
E |--5-5-5-x-5-5-x-5-5-5-5-5--3-3-3-x-3-3-x-3-3-3-3-3--5-5-5-x-5-5-x-5-5-5-5-5--|
B |--5-5-6-x-5-5-x-5-5-5-5-5--5-5-5-x-5-5-x-5-5-5-5-5--7-7-7-x-7-7-x-7-7-7-7-7--|
G |--6-6-6-x-6-6-x-6-6-6-6-6--5-5-5-x-5-5-x-5-5-5-5-5--7-7-7-x-7-7-x-7-7-7-7-7--| x2
D |--7-7-7-x-7-7-x-7-7-7-7-7--5-5-5-x-5-5-x-5-5-5-5-5--7-7-7-x-7-7-x-7-7-7-7-7--|
A |--7-7-7-x-7-7-x-7-7-7-7-7--3-3-3-x-3-3-x-3-3-3-3-3-5-5-5-x-5-5-x-5-5-5-5-5--|
E |--5-5-5-x-5-5-x-5-5-5-5-5----------------------------------------------------|
 "I could see... you home with me..."

E |--7-7-7-xx-10-10-|
B |--9-9-9-xx-12-12-|
G |--9-9-9-xx-12-12-|
D |--9-9-9-xx-12-12-|
A |--7-7-7-xx-10-10-|
E |-----------------|
 "...I said are you gonna be my girl?"

VERSE 2

"So 1, 2, 3, take my hand..."
                   D U D U D
E |--5-5-5-x-5-5-x-5-5-5-5-5-|
B |--5-5-6-x-5-5-x-5-5-5-5-5-|
G |--6-6-6-x-6-6-x-6-6-6-6-6-|
D |--7-7-7-x-7-7-x-7-7-7-7-7-|
A |--7-7-7-x-7-7-x-7-7-7-7-7-|
E |--5-5-5-x-5-5-x-5-5-5-5-5-|

"I said you look so fine..."
                   D U D U D
E |--5-5-5-x-5-5-x-5-5-5-5-5-|
B |--5-5-6-x-5-5-x-5-5-5-5-5-|
G |--6-6-6-x-6-6-x-6-6-6-6-6-|
D |--7-7-7-x-7-7-x-7-7-7-7-7-|
A |--7-7-7-x-7-7-x-7-7-7-7-7-|
E |--5-5-5-x-5-5-x-5-5-5-5-5-|

"4, 5, 6, come on and get your kicks..."
                   D U D U D
E |--5-5-5-x-5-5-x-5-5-5-5-5-------------------|
B |--5-5-6-x-5-5-x-5-5-5-5-5----5-7b9-7-5------|
G |--6-6-6-x-6-6-x-6-6-6-6-6--7-5-7b9-7-5-7-5--|
D |--7-7-7-x-7-7-x-7-7-7-7-7--7-----------7-5--|
A |--7-7-7-x-7-7-x-7-7-7-7-7-------------------|
E |--5-5-5-x-5-5-x-5-5-5-5-5-------------------|
[ Tab from: http://www.guitartabs.cc/tabs/j/jet/are_you_gonna_be_my_girl_tab_ver_7.html ]
"Big black boots..."
E |--5-5-5-xxxx-|
B |--5-5-6-xxxx-|
G |--6-6-6-xxxx-| x4
D |--7-7-7-xxxx-|
A |--7-7-7-xxxx-|
E |--5-5-5-xxxx-|

CHORUS

                   D U D U D                D U D U D                D U D U D
E |--5-5-5-x-5-5-x-5-5-5-5-5--3-3-3-x-3-3-x-3-3-3-3-3--5-5-5-x-5-5-x-5-5-5-5-5--|
B |--5-5-6-x-5-5-x-5-5-5-5-5--5-5-5-x-5-5-x-5-5-5-5-5--7-7-7-x-7-7-x-7-7-7-7-7--|
G |--6-6-6-x-6-6-x-6-6-6-6-6--5-5-5-x-5-5-x-5-5-5-5-5--7-7-7-x-7-7-x-7-7-7-7-7--| x2
D |--7-7-7-x-7-7-x-7-7-7-7-7--5-5-5-x-5-5-x-5-5-5-5-5--7-7-7-x-7-7-x-7-7-7-7-7--|
A |--7-7-7-x-7-7-x-7-7-7-7-7--3-3-3-x-3-3-x-3-3-3-3-3-5-5-5-x-5-5-x-5-5-5-5-5--|
E |--5-5-5-x-5-5-x-5-5-5-5-5----------------------------------------------------|
 "I could see... you home with me..."

E |--7-7-7-xx-10-10-|
B |--9-9-9-xx-12-12-|
G |--9-9-9-xx-12-12-|
D |--9-9-9-xx-12-12-|
A |--7-7-7-xx-10-10-|
E |-----------------|
 "...I said are you gonna be my girl?"

                   D U D U D
E |--5-5-5-x-5-5-x-5-5-5-5-5-|
B |--5-5-6-x-5-5-x-5-5-5-5-5-|
G |--6-6-6-x-6-6-x-6-6-6-6-6-|
D |--7-7-7-x-7-7-x-7-7-7-7-7-|
A |--7-7-7-x-7-7-x-7-7-7-7-7-|
E |--5-5-5-x-5-5-x-5-5-5-5-5-|

This repeats 4 times, then the solo comes in over the top of it. Play this a total of 12 
(8 while the solo is going on).

SOLO

E |-----------10-----------12----------------------|
B |--12b13-10-----12b13-10-----12b13-10---10-10----|
G |-------------------------------------9----------|
D |------------------------------------------------| x5
A |------------------------------------------------|
E |------------------------------------------------|

Wrong, I know, but it's a simple way to play it and it sounds sorta right.

CHORUS

                   D U D U D                D U D U D                D U D U D                D U D U D
E |--5-5-5-x-5-5-x-5-5-5-5-5--3-3-3-x-3-3-x-3-3-3-3-3--5-5-5-x-5-5-x-5-5-5-5-5--5-5-5-x-5-5-x-5-5-5-5-5--|
B |--5-5-6-x-5-5-x-5-5-5-5-5--5-5-5-x-5-5-x-5-5-5-5-5--7-7-7-x-7-7-x-7-7-7-7-7--5-5-5-x-5-5-x-5-5-5-5-5--|
G |--6-6-6-x-6-6-x-6-6-6-6-6--5-5-5-x-5-5-x-5-5-5-5-5--7-7-7-x-7-7-x-7-7-7-7-7--6-6-6-x-6-6-x-6-6-6-6-6--| x2
D |--7-7-7-x-7-7-x-7-7-7-7-7--5-5-5-x-5-5-x-5-5-5-5-5--7-7-7-x-7-7-x-7-7-7-7-7--7-7-7-x-7-7-x-7-7-7-7-7--|
A |--7-7-7-x-7-7-x-7-7-7-7-7--3-3-3-x-3-3-x-3-3-3-3-3-5-5-5-x-5-5-x-5-5-5-5-5--7-7-7-x-7-7-x-7-7-7-7-7--|
E |--5-5-5-x-5-5-x-5-5-5-5-5----------------------------------------------------5-5-5-x-5-5-x-5-5-5-5-5--|
 "I could see... you home with me..."

                   D U D U D                D U D U D                D U D U D
E |--5-5-5-x-5-5-x-5-5-5-5-5--3-3-3-x-3-3-x-3-3-3-3-3--5-5-5-x-5-5-x-5-5-5-5-5--5-5-5-x-5-5-x--|
B |--5-5-6-x-5-5-x-5-5-5-5-5--5-5-5-x-5-5-x-5-5-5-5-5--7-7-7-x-7-7-x-7-7-7-7-7--5-5-5-x-5-5-x--|
G |--6-6-6-x-6-6-x-6-6-6-6-6--5-5-5-x-5-5-x-5-5-5-5-5--7-7-7-x-7-7-x-7-7-7-7-7--6-6-6-x-6-6-x--|
D |--7-7-7-x-7-7-x-7-7-7-7-7--5-5-5-x-5-5-x-5-5-5-5-5--7-7-7-x-7-7-x-7-7-7-7-7--7-7-7-x-7-7-x--|
A |--7-7-7-x-7-7-x-7-7-7-7-7--3-3-3-x-3-3-x-3-3-3-3-3-5-5-5-x-5-5-x-5-5-5-5-5--7-7-7----------|
E |--5-5-5-x-5-5-x-5-5-5-5-5----------------------------------------------------5-5-5----------|
 "Be my girl..."

                                                                              --7-7-7-xx-10-10-|
                                                                              --9-9-9-xx-12-12-|
                                                                              --9-9-9-xx-12-12-|
                                                                              --9-9-9-xx-12-12-|
                                                                              --7-7-7-xx-10-10-|
                                                                              -----------------|

The last bit is played by another guitar, over the top of the main bit (I think).
Comments