Jet - Are You Gonna Be My Girl Chords & Tabs

 

Are You Gonna Be My Girl Chords & Tabs

Jet Chords & Tabs

Version: 6 Type: Tab 0 ratings
1 star 2 stars 3 stars 4 stars 5 stars
comments

Are You Gonna Be My Girl Tab

   
Jet- Are you gonna be my girl

Tabbed By: RJMan
Email:Deathbane21@hotmail.com

This is closer than any other tab of this song on this site. 
If you listen closely, you will hear all the notes 
that other tabbers missed in guitar 1. If you do find a mistake, 
please e-mail it to me at Deathbane21@hotmail.com. 
RJMan

Key: ^=Bend
     ^>=Bend and return to note again without strumming

Song chords:
  Asus  Csus  Dsus
e----------------------------|
B-------1-----3--------------|
G-2-----0-----2--------------|
D-2--------------------------|
A-0--------------------------|
E----------------------------|

Bass intro:
G----------------------------------------|
D----------------------------------------|
A-0-0-0--0-0-----0-3--0-0-0--0-0---------|
E------------0-3-----------------0-3-0-3-|

G--------------------------------------|
D--------------------------------------|
A-0-0-0--0-0------0-3-0-3-5^5-3-0-0----|
E------------0-3--------------------3--|

Play first 3 parts of it again, then guitar 1 joins in
Riff A
e---------------------|
B---------------------|
G-2-5-7^7-5-2-2-0-----|
D-2-5-7^7-5-2-2-0-----|
A---------------------|
E---------------------|

Verse riff
Go!
e-----------------------------------|
B---------------------------------1-|
G-2-2-2--2-2-222-0-2-2-2--2-2-222-0-|
D-2-2-2--2-2-222-0-2-2-2--2-2-222---|
A-----------------------------------|
E-----------------------------------|

e------------------------------------|
B------------------------------------|1,2,3, take my hand and come
G-2-2-2--2-2-222-0-2-5-7^7-5-2-2-0-2-|with me because you look so
D-2-2-2--2-2-222-0-2-5-7^7-5-2-2-0-2-|fine and I really wanna make
A------------------------------------|you mine
E------------------------------------|

e---------------------|
B---------------------|
G-2-2-2--2-2-222-0-2--|I said you look so fine and
D-2-2-2--2-2-222-0-2--|I really wanna make you mine
A---------------------|
E---------------------| 

e---------------------|
B----------------1----|4,5,6, C'mon and get your kicks now you dont
G-2-2-2--2-2-222-0-2--|need money when you look like that, do ya,
D-2-2-2--2-2-222---2--|honey
A---------------------|
E---------------------|

e----------------------------------|
B----------------------------------|
G-2-2-2--2-2-222-0-2-5-7^7-5-2-2-0-|
D-2-2-2--2-2-222-0-2-5-7^7-5-2-2-0-|
A----------------------------------|
E----------------------------------|
[ Tab from: http://www.guitartabs.cc/tabs/j/jet/are_you_gonna_be_my_girl_tab_ver_6.html ]
 Pre-chorus riff
e--------------|
B-3-3-33-1-8---|
G-2-2-22-0-7---|
D--------------|
A--------------|
E--------------|
3x then 
e--------------|
B-10-10-10__---|
G-9--9--9___---|
D--------------|
A--------------|
E--------------|

Chorus riff
e-------------------------------------|Well I could see
B-------------------1-1-1--1-1-111-11-|you home with me 
G-2-2-2--2-2-222-22-0-0-0--0-0-000-00-|But you were with
D-2-2-2--2-2-222-22-------------------|another maan, ya.
A-------------------------------------|
E-------------------------------------|

e--------------------------------------| I know we aint got
B-3-3-3--3-3-333-33--------------------| Much to say
G-2-2-2--2-2-222-22-2-2-2--2-2-222-00--| Before I let you
D-------------------2-2-2--2-2-222-00--| get awaaay, ya.
A--------------------------------------|
E--------------------------------------|

Then 
Riff B
e---------------------|
B-1-1-1-111-11-3-3__--|
G-0-0-0-000-00-2-2__--|
D---------------------|
A---------------------|
E---------------------|

Verse Riff 2
Verse again, but on first quarter of riff, play this
e-------------------------|
B----------------11-3^1---|
G-2-2-2--2-2-222-00-2^0-2-|
D-2-2-2--2-2-222--------2-|
A-------------------------|
E-------------------------|

Play chorus again, guitar one plays this 
over and over again until final chorus
e---------------------|
B---------------------|
G---------------------|
D-2-2-2--2-2-222-0----|
A-0-0-0--0-0-000-0----|
E---------------------|
Guitar 2 plays this
e--5-5-5--5-5-555-55-8-8-8--8-8-888-88--|
B--5-5-5--5-5-555-55-8-8-8--8-8-888-88--|
G---------------------------------------|
D---------------------------------------|
A---------------------------------------|
E---------------------------------------|

e-15-15-15--15-15-15-15-15-15-15-5-5-5--5-5-555-3-|
B-15-15-15--15-15-15-15-15-15-15-5-5-5--5-5-555-3-|
G-------------------------------------------------|
D-------------------------------------------------|
A-------------------------------------------------|
E-------------------------------------------------|

Guitar 3 plays this
e-7^>-5-8-7^>-5-10-7^>5-0-5-7^>5-|
B--------------------------------|
G--------------------------------|
D--------------------------------|
A--------------------------------|
E--------------------------------|

Play chorus again, then chorus riff once more while he sings
Be my girl! Be my girl!
Then play this at the end
e----------------------|
B--------------3-3___--|
G-2-2-2-222-00-2-2___--|
D-2-2-2-222-00---------|
A----------------------|
E----------------------|
Are you gonna be my girl Yeah!!

Structure:
Bass intro
Riff A
Verse riff
Verse
Pre-Chorus riff
Chorus riff x2
Riff B
Verse Riff 2
Verse
Pre-Chorus Riff
Chorus riff x2
Riff B
Guitar 1,2 and 3 interlude
Chorus riff x3
Closing riff
Comments