Jet - Are You Gonna Be My Girl Chords & Tabs

 

Are You Gonna Be My Girl Chords & Tabs

Jet Chords & Tabs

Version: 4 Type: Tab 0 ratings
1 star 2 stars 3 stars 4 stars 5 stars
comments

Are You Gonna Be My Girl Tab

Will you be my Girl
By JET
tabbed by me

     this is my first tab.  i got tired of seeing bad tabs so i decided to take
all the right parts out of the tabs and some of my own stuff and make a tab.  

Intro: Starts off bass then goes to
e-------------------------
B-------------------------
G------5-7^-7-5-----------
D----7-5-7^-7-5-7---------
A----7----------7---------
E-------------------------  

Verse:  

"well it's a one two three..."

E----------------------------------------------------------------
B----------------------------------------------------------------
G---------------------5-7---------------------------------------
D---7-7-7---7-7-7-7---5-7-----not completly sure on that-------
A---7-7-7---7-7-7-7---------------------------------------------
E---5-5-5---5-5-5-5----------------------------------------------

"I said you look so fine..."

E----------------------------------------------------------------
B----------------------------------------------------------------
G---------------------7-5----------------------------------------
D---7-7-7---7-7-7-7---7-5----------------------------------------
A---7-7-7---7-7-7-7----------------------------------------------
E---5-5-5---5-5-5-5----------------------------------------------

"Four five six come on and get your kicks..."

E----------------------------------------------------------------
B----------------------------------------------------------------
G--------------------------5-7^-7-5------------------------------
D---7-7-7---7-7-7-7--7---7-5-7^-7-5-7----------------------------
A---7-7-7---7-7-7-7--7---7----------7----------------------------
E---5-5-5---5-5-5-5--5-------------------------------------------
[ Tab from: http://www.guitartabs.cc/tabs/j/jet/are_you_gonna_be_my_girl_tab_ver_4.html ]
E----------------------------------------------------------------
B----------------------------------------------------------------
G---7-7-7--5-----------------------------7-7-7-------------------
D---7-7-7--5--5--------------------------7-7-7-------------------
A---5-5-5--3--5--------------------------5-5-5-------------------
E-------------3----3 times and then just-------------------------

Chorus:

E----------------------------------------------------------------
B----------------------------------------------------------------
G-------------------5-5-5--5-5--5---7-7-7--7-7--7----------------
D---7-7-7--7-7--7---5-5-5--5-5--5---7-7-7--7-7--7--7-7-7--7-7--7-
A---7-7-7--7-7--7---3-3-3--3-3--3---5-5-5--5-5--5--7-7-7--7-7--7-
E---5-5-5--5-5--5----------------------------------5-5-5--5-5--5-

twice then

E----------------------------------------------------------------
B----------------------------------------------------------------
G---9--9--9----12--12--------------------------------------------
D---9--9--9----12--12--------------------------------------------
A---7--7--7----10--10--------------------------------------------
E----------------------------------------------------------------

Then everything from the verse again through to the above chorus, then:

"I said are you gonna be my girl..."

E----------------------------------------------------------------
B----------------------------------------------------------------
G----------------------------------------------------------------
D---7-7-7---7-7-7-7--7-------------------------------------------
A---7-7-7---7-7-7-7--7-------------------------------------------
E---5-5-5---5-5-5-5--5--keep playing this under the solo---------


i couldn't figure out the solo, sorry.

Then play the chorus and thats all.  this is a wicked good song(excuse the wicked
im from NH) and i hope that you like the tab.  If u have any complaints then too
bad cuz i aint givin out my email
Comments