Jet - Are You Gonna Be My Girl Chords & Tabs

 

Are You Gonna Be My Girl Chords & Tabs

Jet Chords & Tabs

Version: 3 Type: Tab 0 ratings
1 star 2 stars 3 stars 4 stars 5 stars
comments

Are You Gonna Be My Girl Tab

#----------------------------------PLEASE NOTE---------------------------------#
#This file is the author's own work and represents their interpretation of the #
#song. You may only use this file for private study, scholarship, or research. #
#------------------------------------------------------------------------------#

Jet - Are You Gonna Be My Girl

Tabbed By Trajko Skopelja

Bass intro
---------------------------------------------------
---------------------------------------------------
---------------------------------------------------
---------------------------------------------------
-----------------------5---------------------------
-5-5-5-3--5-5----0h3h5----5-5-5-3--5-5----0h3h5--3-

[ Tab from: http://www.guitartabs.cc/tabs/j/jet/are_you_gonna_be_my_girl_tab_ver_3.html ]
-----------------------------------------------
-----------------------------------------------
-----------------------------------------------
-----------------------------------------------
-----------------------5-----3-5--5--3---------
-5-5-5-3--5-5----0h3h5-----5------------5-5----

Guitar - Riff 1
-----------------------------------------------
-----5--7---7b--5------------------------------
-----5--7---7b--5------------------------------
--7----------------7-7--5----------------------
-----------------------------------------------
-----------------------------------------------

Riff 2
-------------(strum up and down)---------------
--------------2-2-2-2--------------------------
-2-2-2-0-2-2--2-2-2-2--------------------------
-2-2-2-0-2-2--2-2-2-2--------------------------
-0-0-0---0-0--0-0-0-0--------------------------
-----------------------------------------------

Riff 3
-----------------------------------------------
-----------------------------------------------
--7--7--7--7-7--5------------------------------
--7--7--7--7-7--5------------------------------
--5--5--5--5-5--3------------------------------
-----------------------------------------------

- Bass Intro
- Riff 1
- Riff 2
- Riff 1
- Verse

Comments