Jet - Are You Gonna Be My Girl Chords & Tabs

 

Are You Gonna Be My Girl Chords & Tabs

Jet Chords & Tabs

Version: 2 Type: Tab 2 ratings
1 star 2 stars 3 stars 4 stars 5 stars
comments

Are You Gonna Be My Girl Tab

   
#----------------------------------PLEASE NOTE---------------------------------#
#This file is the author's own work and represents their interpretation of the #
#song. You may only use this file for private study, scholarship, or research. #
#------------------------------------------------------------------------------#

Jet
Are You Gonna Be My Girl
Get Born Track 2


Tabbed by: GuitarAnarchist
Comments or corrections: thegrammarcop@hotmail.com

Standard Tuning EADGBe
b=bend up one semitone 


Intro 
E----------------------------------------------------------|
A---------------------B-A-S-S------------------------------|
D----------------------------------------------------------|
G----------------------------------------------------------|
B-----------3-------------------------3-----3-5-5-3--------|
E-555-555-33---555-555-003--555-555-33----5---------5-3-5--|

E---------------------------------------|------------------|
A-------------B-A-S-S-------------------|---G-U-I-T-A-R----|
D---------------------------------------|------------------|
G---------------------------------------|------------------|
B-----------3-------------------------3-|---3-5-5-3--------|
E-555-555-33---555-555-003--555-555-33--|-5---------5-3-5--|

    Go!

Riff 1
E----------------------|
B----------------------|
G-------------------5--| x3
D-7-7-7--7-7-7-7-7--5--|   
A-7-7-7--7-7-7-7-7--3--|
E-5-5-5--5-5-5-5-5-----|
  A                 C          

Riff 2
E--------------------|
B--------------------|
G----5-7-7-5---------|
D--7-5-7-7-5-7-5-7---|
A--7-3-5-5-3-7-5-7---|
E--5---------5-3-5---|
   A-C-D-D-C-A-G-A
                      
Riff 3
E-----------------------------|
B-----------------------------|
G------------------------(s)--| 
D--7-7-7--7-7-7-7-7--5—7-(t)--|  
A--7-7-7--7-7-7-7-7--5—7-(o)--|
E--5-5-5--5-5-5-5-5—-3-5-(p)--|
   A                 G A
                                
Riff 3
E-----------------------------|
B-----------------------------|
G------------------------(s)--| 
D--7-7-7--7-7-7-7-7--5—7-(t)--|  
A--7-7-7--7-7-7-7-7--5—7-(o)--|
E--5-5-5--5-5-5-5-5—-3-5-(p)--|
   A                 G A
                                
Riff 3
E-----------------------------|
B-----------------------------|
G-----------------------------| 
D--7-7-7--7-7-7-7-7--5—7------|  
A--7-7-7--7-7-7-7-7--5—7------|
E--5-5-5--5-5-5-5-5—-3-5------|
   A                 G A


Riff 2
E--------------------|
B--------------------|
G----5-7-7-5---------|
D--7-5-7-7-5-7-5-7---|
A--7-3-5-5-3-7-5-7---|
E--5---------5-3-5---|
   A-C-D-D-C-A-G-A


Riff 4
E--------------------------------------|
B--------------------------------------|
G--7-------7-------7--------3----------| x4
D--7-------7-------7--------5--3-------|
A--5-------5-------5--------5--5-------|
E------------------------------5-------|
   D       D       D        C  G

   
Riff 5
E-------------------------------------------------------------------------|
B-------------------------------------------------------------------------|
G--------------------5-5-5--5-5-5-5-5--7-7-7--7-7-7-7-7-------------------| x2
D--7-7-7--7-7-7-7-7--5-5-5--5-5-5-5-5--7-7-7--7-7-7-7-7--7-7-7--7-7-7-7-7-|
A--7-7-7--7-7-7-7-7--3-3-3--3-3-3-3-3--5-5-5--5-5-5-5-5--7-7-7--7-7-7-7-7-|
E--5-5-5--5-5-5-5-5--------------------------------------5-5-5--5-5-5-5-5-|
   A                 C                 D                 A

   
Riff 6
E--------------------|
B--------------------|
G--9-9-9--9-9-12-12--|  (let last chord ring before lyrics)
D--9-9-9--9-7-12—12--|   
A--7-7-7--7-7-10-10--|
E--------------------|
   E           G
                           I said, are you gonna be my girl

Riff 1
E----------------------|
B----------------------|
G-------------------5--| x3
D-7-7-7--7-7-7-7-7--5--|   
A-7-7-7--7-7-7-7-7--3--|
E-5-5-5--5-5-5-5-5-----|
  A                 C          
[ Tab from: http://www.guitartabs.cc/tabs/j/jet/are_you_gonna_be_my_girl_tab_ver_2.html ]
Riff 2
E-------------------|
B-------------------|
G---5-7-7-5---------|
D-7-5-7-7-5-7-5-7---|
A-7-3-5-5-3-7-5-7---|
E-5---------5-3-5---|
  A-C-D-D-C-A-G-A
                     
Riff 3
E-----------------------------|
B-----------------------------|
G------------------------(s)--| 
D--7-7-7--7-7-7-7-7--5—7-(t)--|  
A--7-7-7--7-7-7-7-7--5—7-(o)--|
E--5-5-5--5-5-5-5-5—-3-5-(p)--|
   A                 G A
                                
Riff 3
E-----------------------------|
B-----------------------------|
G------------------------(s)--| 
D--7-7-7--7-7-7-7-7--5—7-(t)--|  
A--7-7-7--7-7-7-7-7--5—7-(o)--|
E--5-5-5--5-5-5-5-5—-3-5-(p)--|
   A                 G A
                                
Riff 3
E-----------------------------|
B-----------------------------|
G-----------------------------| 
D--7-7-7--7-7-7-7-7--5—7------|  
A--7-7-7--7-7-7-7-7--5—7------|
E--5-5-5--5-5-5-5-5—-3-5------|
   A                 G A


Riff 2
E-------------------|
B-------------------|
G---5-7-7-5---------|
D-7-5-7-7-5-7-5-7---|
A-7-3-5-5-3-7-5-7---|
E-5---------5-3-5---|
  A-C-D-D-C-A-G-A


Riff 4
E--------------------------------------|
B--------------------------------------|
G--7-------7-------7--------3----------| x4
D--7-------7-------7--------5--3-------|
A--5-------5-------5--------5--5-------|
E------------------------------5-------|
   D       D       D        C  G

   


Riff 5
E-------------------------------------------------------------------------|
B-------------------------------------------------------------------------|
G--------------------5-5-5--5-5-5-5-5--7-7-7--7-7-7-7-7-------------------| x2
D--7-7-7--7-7-7-7-7--5-5-5--5-5-5-5-5--7-7-7--7-7-7-7-7--7-7-7--7-7-7-7-7-|
A--7-7-7--7-7-7-7-7--3-3-3--3-3-3-3-3--5-5-5--5-5-5-5-5--7-7-7--7-7-7-7-7-|
E--5-5-5--5-5-5-5-5--------------------------------------5-5-5--5-5-5-5-5-|
   A                 C                 D                 A

   
Riff 6
E--------------------|
B--------------------|
G--9-9-9--9-9-12-12--|  (let last chord ring before lyrics) 
D--9-9-9--9-7-12—12--|   
A--7-7-7--7-7-10-10--|
E--------------------|
   E          G
                        I said, are you gonna be my girl

Riff 1
E-------------------------|
B-------------------------|
G--------------------5----| x4, then x8 with solo
D--7-7-7--7-7-7-7-7--3—---|  
A--7-7-7--7-7-7-7-7--3—---|
E--5-5-5--5-5-5-5-5—---—--|
   A                 C  


Solo
E-------------------------------------------------------|
B-------------------------15----------------------17----|
G---14--16b-17b-16--14------14--16b-17b-16--14----------|
D-------------------------------------------------------|
A-------------------------------------------------------|
E-------------------------------------------------------|

E-------------------------------------------------------|
B-------------------------------------------------------|
G---14--16b-17b-16--14------14--16b-17b-16--14----------| Play Solo
D-------------------------14----------------------------| 2x
A-------------------------------------------------------|
E-------------------------------------------------------|


Riff 5
E-------------------------------------------------------------------------|
B-------------------------------------------------------------------------|
G--------------------5-5-5--5-5-5-5-5--7-7-7--7-7-7-7-7-------------------| x2
D--7-7-7--7-7-7-7-7--5-5-5--5-5-5-5-5--7-7-7--7-7-7-7-7--7-7-7--7-7-7-7-7-|
A--7-7-7--7-7-7-7-7--3-3-3--3-3-3-3-3--5-5-5--5-5-5-5-5--7-7-7--7-7-7-7-7-|
E--5-5-5--5-5-5-5-5--------------------------------------5-5-5--5-5-5-5-5-|
   A                 C                 D                 A

   
Outro
E-------------------------------------------------------------------------|
B-------------------------------------------------------------------------|
G--------------------5-5-5--5-5-5-5-5--7-7-7--7-7-7-7-7--9-9-9--9-9-12-12-|
D--7-7-7--7-7-7-7-7--5-5-5--5-5-5-5-5--7-7-7--7-7-7-7-7--9-9-9--7-7-12-12-|
A--7-7-7--7-7-7-7-7--3-3-3--3-3-3-3-3--5-5-5--5-5-5-5-5--7-7-7--7-7-10-10-|
E--5-5-5--5-5-5-5-5-------------------------------------------------------|
   A                 C                 D                 E           G

   Be my girl.       Be my girl.       Are you gonna be my girl.

(Let final chord ring to end song.)


Summary of Guitar Parts

Introx1
Riff 1x3
Riff 2x1
Riff 3x3
Riff 2x1
Riff 4x4
Riff 5x2
Riff 6x1
Riff 1x3
Riff 2x1
Riff 3x3
Riff 2x1
Riff 4x4
Riff 5x2
Riff 6x1
Riff 1x4
Riff 1x8 with solo
Solox1
Riff 5x2
Outrox1
Comments