Jet - Are You Gonna Be My Girl Chords & Tabs

 

Are You Gonna Be My Girl Chords & Tabs

Jet Chords & Tabs

Version: 14 Type: Tab 0 ratings
1 star 2 stars 3 stars 4 stars 5 stars
comments

Are You Gonna Be My Girl Tab

   
-------------------------------------------------------------------------------
			     Are You Gonna Be My Girl - Jet
-------------------------------------------------------------------------------

Intro. a few times
e|---------------------------------------------|
B|---------------------------------------------|
G|---------------------------------------------|
D|---------------------------------------------|
A|--------------------3------------------------|
E|--5-5-5---5-5-0-3-0-----5-5-5---5-5-0-3-0-3--|

e|----------------------------------------------|
B|----------------------------------------------|
G|----------------------------------------------|
D|----------------------------------------------|
A|--------------------------3-5b--5-3-----------|
E|--5-5-5---5-5-0-3-0-3---5------------h5-5--3--|

Let's go!!
e|--5-5-5--5-5--5-5--5-5-------5-3-5---5-3-5-5--3--|
B|--5-5-5--5-5--5-5--5-5-------5-5-7b--7-5-5-5--3--|
G|--6-6-6--6-6--6-6--6-6-------6-5-7b--7-5-6-6--4--|
D|--7-7-7--7-7--7-7--7-7-------7-5-7b--7-5-7-7--5--|
A|--7-7-7--7-7--7-7--7-7-------7-3-5---5-3-7-7--5--|
E|--5-5-5--5-5--5-5--5-5-------5-----------5-5--3--|

Verse:

I said a 1,2,3, take my hand and come with me
Because you look so fine 
That i really wanna make you mine.

then..
e|--5-5-5--5-5--5-5--5-5--|
B|--5-5-5--5-5--5-5--5-5--|
G|--6-6-6--6-6--6-6--6-6--|
D|--7-7-7--7-7--7-7--7-7--|
A|--7-7-7--7-7--7-7--7-7--|
E|--5-5-5--5-5--5-5--5-5--|

I said you look so fine 
That I really wanna make you mine.

again..
e|--5-5-5--5-5--5-5--5-5--|
B|--5-5-5--5-5--5-5--5-5--|
G|--6-6-6--6-6--6-6--6-6--|
D|--7-7-7--7-7--7-7--7-7--|
A|--7-7-7--7-7--7-7--7-7--|
E|--5-5-5--5-5--5-5--5-5--|

Oh, 4,5,6 c'mon and get your kicks
Now you dont need that money 
When you look like that, do ya honey.
e|--5-5-5--5-5--5-5--5-5-------5-3-5---5-3-5-5--3--|
B|--5-5-5--5-5--5-5--5-5-------5-5-7b--7-5-5-5--3--|
G|--6-6-6--6-6--6-6--6-6-------6-5-7b--7-5-6-6--4--|
D|--7-7-7--7-7--7-7--7-7-------7-5-7b--7-5-7-7--5--|
A|--7-7-7--7-7--7-7--7-7-------7-3-5---5-3-7-7--5--|
E|--5-5-5--5-5--5-5--5-5-------5-----------5-5--3--|

Big black boots,  Long brown hair,
e|--5-5-5---------3-3-3----|
B|--5-5-5---------5-5-5----|
G|--6-6-6---------5-5-5----|
D|--7-7-7---------5-5-5----|
A|--7-7-7---------3-3-3----|
E|--5-5-5------------------|

She's so sweet   With her get back stare!
e|--5-5-5---------------5-5-5----|
B|--7-7-7---------------5-5-5----|
G|--7-7-7---------------6-6-6----|
D|--7-7-7---------------7-7-7----|
A|--5-5-5---------------7-7-7----|
E|----------------------5-5-5----|

Chorus:
[ Tab from: http://www.guitartabs.cc/tabs/j/jet/are_you_gonna_be_my_girl_tab_ver_14.html ]
Well I could see,            You home with me, 
e|--5-5-5--5-5--5-5--5-5--|--3-3-3--3-3--3-3--3-3--|
B|--5-5-5--5-5--5-5--5-5--|--5-5-5--5-5--5-5--5-5--|
G|--6-6-6--6-6--6-6--6-6--|--5-5-5--5-5--5-5--5-5--|
D|--7-7-7--7-7--7-7--7-7--|--5-5-5--5-5--5-5--5-5--|
A|--7-7-7--7-7--7-7--7-7--|--3-3-3--3-3--3-3--3-3--|
E|--5-5-5--5-5--5-5--5-5--|------------------------|

But you were with another man, yeah!
e|--5-5-5--5-5--5-5--5-5--|--5-5-5--5-5--5-5--5-5--|
B|--7-7-7--7-7--7-7--7-7--|--5-5-5--5-5--5-5--5-5--|
G|--7-7-7--7-7--7-7--7-7--|--6-6-6--6-6--6-6--6-6--|
D|--7-7-7--7-7--7-7--7-7--|--7-7-7--7-7--7-7--7-7--|
A|--5-5-5--5-5--5-5--5-5--|--7-7-7--7-7--7-7--7-7--|
E|------------------------|--5-5-5--5-5--5-5--5-5--|

I know we ain't got,         much to say,
e|--5-5-5--5-5--5-5--5-5--|--3-3-3--3-3--3-3--3-3--|
B|--5-5-5--5-5--5-5--5-5--|--5-5-5--5-5--5-5--5-5--|
G|--6-6-6--6-6--6-6--6-6--|--5-5-5--5-5--5-5--5-5--|
D|--7-7-7--7-7--7-7--7-7--|--5-5-5--5-5--5-5--5-5--|
A|--7-7-7--7-7--7-7--7-7--|--3-3-3--3-3--3-3--3-3--|
E|--5-5-5--5-5--5-5--5-5--|------------------------|

Before I let you get away, yeah!
e|--5-5-5--5-5--5-5--5-5--|--5-5-5--5-5--5-5--5-5--|
B|--7-7-7--7-7--7-7--7-7--|--5-5-5--5-5--5-5--5-5--|
G|--7-7-7--7-7--7-7--7-7--|--6-6-6--6-6--6-6--6-6--|
D|--7-7-7--7-7--7-7--7-7--|--7-7-7--7-7--7-7--7-7--|
A|--5-5-5--5-5--5-5--5-5--|--7-7-7--7-7--7-7--7-7--|
E|------------------------|--5-5-5--5-5--5-5--5-5--|

then..
e|--7-7-7--7-7-7-7--|--10--10---|
B|--9-9-9--9-9-9-9--|--12--12---|
G|--9-9-9--9-9-9-9--|--12--12---|
D|--9-9-9--9-9-9-9--|--12--12---|
A|--7-7-7--7-7-7-7--|--10--10---|
E|------------------|-----------|

I said, are you gonna be my girl?
e|--5-5-5--5-5--5-5--5-5-------5-3-5---5-3-5-5--3--|
B|--5-5-5--5-5--5-5--5-5-------5-5-7b--7-5-5-5--3--|
G|--6-6-6--6-6--6-6--6-6-------6-5-7b--7-5-6-6--4--|
D|--7-7-7--7-7--7-7--7-7-------7-5-7b--7-5-7-7--5--|
A|--7-7-7--7-7--7-7--7-7-------7-3-5---5-3-7-7--5--|
E|--5-5-5--5-5--5-5--5-5-------5-----------5-5--3--|

Verse 2       then..
Chorus 2

Solo
e|------------------------------------------|
B|-----------------15-15-------------17-17--|
G|--14--16b--14-14--------16b--14-14--------|
D|------------------------------------------|
A|------------------------------------------|
E|------------------------------------------|

e|----------------------------------------|
B|----------------------------------------|
G|--16b-14-14--14-------14-14--16b-14-14--|
D|----------------16-14-------------------|
A|----------------------------------------|
E|----------------------------------------|

Oh Yeah
Oh Yeah
C'mon
I could see,
You home with me, 
But you were with another man, yeah!
I know we, ain't got much to say, 
Before I let you get away, yeah!
Uh, be my girl.
Be my girl.
Are you gonna be my girl? Yeah!


| /  slide up
| \  slide down
| h  hammer-on
| p  pull-off
| ~  vibrato
| +  harmonic
| x  Mute note
===============================================================================
Comments