Jet - Are You Gonna Be My Girl Chords & Tabs

 

Are You Gonna Be My Girl Chords & Tabs

Jet Chords & Tabs

Version: 11 Type: Tab 0 ratings
1 star 2 stars 3 stars 4 stars 5 stars
comments

Are You Gonna Be My Girl Tab

-----------------------------------------------------------------------------
			     Are You Gonna Be My Girl - Jet                 

Tabbed by: rocker14
Email:robutt@sympatico.ca
im so sick of bad tabs of this song
Tuning:standard

the bass does the intro and then both guitars do this 
e|---------------------------------------------------------------------------
B|-----5--7^--5--------------------------------------------------------------
G|-----5--7^--5--------------------------------------------------------------
D|--7------------7--7-x--5---------------------------------------------------
A|---------------------------------------------------------------------------
E|---------------------------------------------------------------------------

verse:guitar 1
e|---------------------------------------------------------------------------
B|------------------------------------------5-7^-5---------------------------
G|------------------------------------------5-7^-5---------------------------
D|-7-7-7-x-7-7-7-7-7-7--------------------7--------7-7-x-5-------------------
A|-x-x-x-x-x-x-x-x-x-x-------------------------------------------------------
E|-5-5-5-x-5-5-5-5-5-5-------------------------------------------------------
 do this however many times            then do this

verse:guitar 2
e|-5-5-5-x-5-5-5-5-5-5-------------------------------------------------------
B|-5-5-5-x-5-5-5-5-5-5-------------------------------------------------------
G|-6-6-6-x-6-6-6-6-6-6-------------------------------------------------------
D|-7-7-7-x-7-7-7-7-7-7-------------------------------------------------------
A|-7-7-7-x-7-7-7-7-7-7-------------------------------------------------------
E|-5-5-5-x-5-5-5-5-5-5-------------------------------------------------------
do this a bunch of times too
[ Tab from: http://www.guitartabs.cc/tabs/j/jet/are_you_gonna_be_my_girl_tab_ver_11.html ]
Pre-Chorus(both guitars
e|---------------------------------------------------------------------------
B|---------------------------------------------------------------------------
G|--11-11-11---9---12--------------------------------------------------------
D|--12-12-12---10--12--------------------------------------------------------
A|--12-12-12---10--10--------------------------------------------------------
E|--10-10-10---8-------------------------------------------------------------
repeat 4x

Chorus:both guitars (im too lazy to write it all. listen to the song for the pattern)
e|--5------------------------------------------------------------------------
B|--5----5----7--------------------------------------------------------------
G|--6----5----7--------------------------------------------------------------
D|--7----5----7--------------------------------------------------------------
A|--7----3----5--------------------------------------------------------------
E|--5------------------------------------------------------------------------

guitar 2
e|-0-0-0----0-0-0-0-0---3-3--------------------------------------------------
B|-0-0-0----0-0-0-0-0---3-3--------------------------------------------------
G|-1-1-1----1-1-1-1-1---0-0--------------------------------------------------
D|-2-2-2----2-2-2-2-2---0-0--------------------------------------------------
A|-2-2-2----2-2-2-2-2---x-x--------------------------------------------------
E|-0-0-0----0-0-0-0-0---3-3--------------------------------------------------

guitar 1
e|---------------------------------------------------------------------------
B|-9-9-9----9-9-9-9-9---12-12------------------------------------------------
G|-9-9-9----9-9-9-9-9---12-12------------------------------------------------
D|-9-9-9----9-9-9-9-9---12-12------------------------------------------------
A|-7-7-7----7-7-7-7-7---10-10------------------------------------------------
E|---------------------------------------------------------------------------

Solo
e|-----10--------------12----------------------------------------------------
B|-12^----10--12^--10-----10-12^-10------------------------------------------
G|---------------------------------------------------------------------------
D|---------------------------------------------------------------------------
A|---------------------------------------------------------------------------
E|---------------------------------------------------------------------------
repeat that a few times

Order:
Intro
Verse
Pre-Chorus
Chorus
Verse
Pre-Chorus
Chorus
Interlude (verse riff with no 2nd guitar or drums)
Solo
Pre-Chorus
Chorus
Outro (chorus riff)
Comments