Jet - Are You Gonna Be My Girl Chords & Tabs

 

Are You Gonna Be My Girl Chords & Tabs

Jet Chords & Tabs

Version: 10 Type: Tab 0 ratings
1 star 2 stars 3 stars 4 stars 5 stars
comments

Are You Gonna Be My Girl Tab

   
Jet- Are you gonna be my girl
Sick ass song
Tabbed by Ray

Intro (bass)
e|------------------|              e|-------------------|
B|------------------|              B|-------------------|
G|------------------|              G|-------------------|
D|------------------|              D|-------------------|
A|----------------3-|              A|---3-5-5-5---------|
E|5-5-5--5-5-5-0-3--| 3x then...   E|-5---------5-5-5-3-|

Guitar Intro:
e|-------------------|
B|-------------------|
G|----5- 7^7---------|
D|-7--5--7-7-7-7-7-5-|
A|-7---------7-7-7-5-|
E|-------------------|

Riff A
e|--------------------|
B|--------------------|
G|--------------------|
D|7-7-7-x-7-7-7-7-7-7-|
A|7-7-7-x-7-7-7-7-7-7-|
E|5-5-5-x-5-5-5-5-5-5-| 3x then

Riff B
e|-------------------|           e|---|
B|-------------------|           B|---|
G|----5- 7^7---------|           G|---|
D|-7--5--7-7-7-7-7-5-|           D|-7-|
A|-7---------7-7-7-5-|           A|-7-|
E|-------------------|  End on:  E|-5-|

Verse:
1,2,3 take my hand and come with me, because you look so fine and
i really want to make you mine.

Riff A
e|--------------------|
B|--------------------|
G|--------------------|
D|7-7-7-x-7-7-7-7-7-7-|
A|7-7-7-x-7-7-7-7-7-7-|
E|5-5-5-x-5-5-5-5-5-5-| 1x

I said you look so fine that i really want to make you mine.

Riff A
e|--------------------|
B|--------------------|
G|--------------------|
D|7-7-7-x-7-7-7-7-7-7-|
A|7-7-7-x-7-7-7-7-7-7-|
E|5-5-5-x-5-5-5-5-5-5-| 1x

Oh, 4,5,6 c'mon and get your kicks
now you dont need that money
when you look like that, do ya honey.

Riff A
e|--------------------|
B|--------------------|
G|--------------------|
D|7-7-7-x-7-7-7-7-7-7-|
A|7-7-7-x-7-7-7-7-7-7-|
E|5-5-5-x-5-5-5-5-5-5-| 1x

Riff B
e|--------------------|
B|--------------------|
G|----5- 7^7----------|
D|-7--5--7-7-7-7-7-5--|
A|-7---------7-7-7-5--|
E|--------------------| 1x

  Big black boots
e|-------------------------|
B|-------------------------|
G|---------------------5-7-|
D|-9----9----9-------7-----|
A|-9----9----9-------------|
E|-7----7----7-------------|

 Long brown hair
e|-------------------------|
B|-------------------------|
G|---------------------5-7-|
D|-9----9----9-------7-----|
A|-9----9----9-------------|
E|-7----7----7-------------|

 She's so sweet
e|-------------------------|
B|-------------------------|
G|---------------------5-7-|
D|-9----9----9-------7-----|
A|-9----9----9-------------|
E|-7----7----7-------------|

With her get back stare
       e|---------------|
       B|---------------|
       G|---------------|
       D|-7----7----7---|
       A|-7----7----7---|
       E|-5--- 5----5---|

Chorus:

Well I could see

e|--------------------|
B|--------------------|
G|--------------------|
D|7-7-7-x-7-7-7-7-7-7-|
A|7-7-7-x-7-7-7-7-7-7-|
E|5-5-5-x-5-5-5-5-5-5-|

You home with me,
[ Tab from: http://www.guitartabs.cc/tabs/j/jet/are_you_gonna_be_my_girl_tab_ver_10.html ]
e|--------------------|
B|--------------------|
G|7-7-7-x-7-7-7-7-7-7-|
D|7-7-7-x-7-7-7-7-7-7-|
A|5-5-5-x-5-5-5-5-5-5-|
E|--------------------|

but you were with another

e|--------------------|
B|--------------------|
G|9-9-9-x-9-9-9-9-9-9-|
D|9-9-9-x-9-9-9-9-9-9-|
A|7-7-7-x-7-7-7-7-7-7-|
E|--------------------|

man, yea!

e|--------------------|
B|--------------------|
G|--------------------|
D|7-7-7-x-7-7-7-7-7-7-|
A|7-7-7-x-7-7-7-7-7-7-|
E|5-5-5-x-5-5-5-5-5-5-|

I know we ain't got

e|--------------------|
B|--------------------|
G|--------------------|
D|7-7-7-x-7-7-7-7-7-7-|
A|7-7-7-x-7-7-7-7-7-7-|
E|5-5-5-x-5-5-5-5-5-5-|

Much to say

e|--------------------|
B|--------------------|
G|7-7-7-x-7-7-7-7-7-7-|
D|7-7-7-x-7-7-7-7-7-7-|
A|5-5-5-x-5-5-5-5-5-5-|
E|--------------------|

Before I let you get

e|--------------------|
B|--------------------|
G|9-9-9-x-9-9-9-9-9-9-|
D|9-9-9-x-9-9-9-9-9-9-|
A|7-7-7-x-7-7-7-7-7-7-|
E|--------------------|

Away, yea!

e|--------------------|
B|--------------------|
G|--------------------|
D|7-7-7-x-7-7-7-7-7-7-|
A|7-7-7-x-7-7-7-7-7-7-|
E|5-5-5-x-5-5-5-5-5-5-|

e|--------------------|
B|--------------------|
G|--------------------|
D|-9-9-9-9-9-9--12-12-|
A|-9-9-9-9-9-9--12-12-|
E|-7-7-7-7-7-7--10-10-|         ...I said, are you gonna be my girl?

Riff A
e|--------------------|
B|--------------------|
G|--------------------|
D|7-7-7-x-7-7-7-7-7-7-|
A|7-7-7-x-7-7-7-7-7-7-|
E|5-5-5-x-5-5-5-5-5-5-| 3x then

Riff B
e|-------------------|           e|---|
B|-------------------|           B|---|
G|----5- 7^7---------|           G|---|
D|-7--5--7-7-7-7-7-5-|           D|-7-|
A|-7---------7-7-7-5-|           A|-7-|
E|-------------------|  End on:  E|-5-|

Repeat Verse 1x and Chorus 1x

Then guitar one plays this a few times:

e|--------------------|
B|--------------------|
G|--------------------|
D|7-7-7-x-7-7-7-7-7-7-|
A|7-7-7-x-7-7-7-7-7-7-|
E|5-5-5-x-5-5-5-5-5-5-|

After 2x guitar two comes in with this:

e|-----------------------------|
B|-----------------------------|
G|-----------------------------|
D|17-17-17-x-17-17-17-17-17-17-|
A|17-17-17-x-17-17-17-17-17-17-|
E|15-15-15-x-15-15-15-15-15-15-|

After that 2x, guitar one starts the solo.

Solo:
e|------------12--------14---------------------------|
B|-15---13^-------13^-------13^----------13^---------|
G|---14----14---14---14---14---14--12-14----14-12-14-|
D|---------------------------------------------------|
A|---------------------------------------------------|
E|---------------------------------------------------|  5x

Song ends on: e|-----------------|
              B|-----------------|
              G|-----------------|
              D|--7--7~----------|
              A|--7--7~-let ring-|
              E|--5--5~----------|

Enjoy
Comments