Jet - Are You Gonna Be My Girl Full Correct Chords & Tabs

 

Are You Gonna Be My Girl Full Correct Chords & Tabs

Jet Chords & Tabs

Version: 1 Type: Tab 6 ratings
1 star 2 stars 3 stars 4 stars 5 stars
comments

Are You Gonna Be My Girl Full Correct Tab

   
This is the artist's work not mine.

                                     JET
                           Are You Gonna Be My Girl?

Wut up all this is kick ass song and im prety bored at 1 a.m., so i decided to tab it because 
i think most of the other tabs for this suck

Bottom line for this song, its an easy song, but if u realy suck at playin, just play the lowest
notes, bass, and it will sound like it

IntRo after the bass then the guitar kicks in

E:----------------------|
A:----------------------|
D:----------------------|
G:----------------------|
B:----3-5b-5b-3---------|
E:--5-----------5-5-3-5-|

Riff # 1

E:----------------------------------------------------------------------|
A:----------------------------------------------------------------------|
D:--------------------5---------------------------------------------5---|
G:-7-7-7--7-7-7-7-7---5---7-7-7--7-7-7-7-7---5---7-7-7--7-7-7-7-7---5---|   continued
B:-7-7-7--7-7-7-7-7---3---7-7-7--7-7-7-7-7---5---7-7-7--7-7-7-7-7---3---|
E:-5-5-5--5-5-5-5-5-------5-5-5--5-5-5-5-5---3---5-5-5--5-5-5-5-5-------|

E:-------------------|
A:-------------------|
D:---5-7-7-5---------|
G:-7-5-7-7-5-7-7-5-7-|
B:-7-3-5-5-3-7-7-5-7-|
E:-5---------5-5-3-5-|

Riff # 2

Play throughout the song, and after the little intro

E:---------------------------|
A:---------------------------|
D:---------------------------|
G:--7-7-7--7-7-7-7-7--5--7---|  repeat then at the last add on...
B:--7-7-7--7-7-7-7-7--5--7---|
E:--5-5-5--5-5-5-5-5--3--5---|
[ Tab from: http://www.guitartabs.cc/tabs/j/jet/are_you_gonna_be_my_girl_full_correct_tab.html ]
E:-------------------------------------------|
A:-------------------------------------------|
D:-----------------------5-7-7-5-------------|
G:--7-7-7--7-7-7-7-7--7--5-7-7-5-7-7-5-7-----|  
B:--7-7-7--7-7-7-7-7--7--3-5-5-3-7-7-5-7-----|
E:--5-5-5--5-5-5-5-5--5----------5-5-3-5-----|



Riff # 3

Play throughout the song

E:---------------------|
A:---------------------|
D:-------------------5-|   repeat
G:--7-7-7--7-7-7--5--5-|
B:--7-7-7--7-7-7--5--3-|
E:--5-5-5--5-5-5--3----|

Riff # 4

Play Periodically thoruhg the song

E:-------------------------------------------------------------------------|
A:-------------------------------------------------------------------------|
D:--------------------5-5-5--5-5-5-5-5--7-7-7--7-7-7-7-7-------------------|
G:--7-7-7--7-7-7-7-7--5-5-5--5-5-5-5-5--7-7-7--7-7-7-7-7--7-7-7--7-7-7-7-7-|
B:--7-7-7--7-7-7-7-7--3-3-3--3-3-3-3-3--5-5-5--5-5-5-5-5--7-7-7--7-7-7-7-7-|
E:--5-5-5--5-5-5-5-5--------------------------------------5-5-5--5-5-5-5-5-|

Riff # 5

Play in the middle, wen theres a solo part, i guess you call it that

E:----------------------|
A:----------------------|
D:----------------------|
G:----------------------|    repeat and keep reapting
B:----------------------|
E:--5-5-5--5-5-5-5-5-3--|

Riff # 6

Play right before he says, "Are you gona be my girl"

E:-----------------|
A:-----------------|
D:--9-9-9-9--12-12-|   repeat
G:--9-9-9-9--12-12-|
B:--7-7-7-7--10-10-|
E:-----------------|

Riff # 7

E:--------------|
A:--------------|
D:--7---7-----7-|
G:--7---7-----7-|
B:--5---5-----5-|
E:--------------|
    big black boots...


U can figure out wen to play wut, its easy and im tired
Peace out playas
Luke
If you want to get ahlod of me and want me to try an tab a song for ya, my sn is 
Lukehuh2@aol.com
Comments