Jet - Are You Gonna Be My Girl Chords & Tabs

 

Are You Gonna Be My Girl Chords & Tabs

Jet Chords & Tabs

Version: 6 Type: Bass Tab 0 ratings
1 star 2 stars 3 stars 4 stars 5 stars
comments

Are You Gonna Be My Girl Bass Tab

   
Tabbed By : jaronthebassist

                        Are You Gonna Be My Girl                           


                                                                        Jet
Bass



     W                   W                   W                 
G||-------------------|-------------------|-------------------|
D||-------------------|-------------------|-------------------|
A||-------------------|-------------------|-------------------|
E||-------------------|-------------------|-------------------|


  Q    Q    Q    E  E     E  E  E  E  E  E  Q       Q    Q    Q    E  E   
-----------------------|-------------------------|-----------------------|
-----------------------|-------------------------|-----------------------|
-----------------------|-----------------0--3----|-----------------------|
--5----5----5-------5--|-----5-----0--3----------|--5----5----5-------5--|


  E  E  E  E  E  E  Q       Q    Q    Q    E  E   
-------------------------|-----------------------|
-------------------------|-----------------------|
-------------------------|-----------------------|
-----5-----0--3--0--3----|--5----5----5-------5--|


  E  E  E  E  E  E  Q       Q    Q    Q.      E     E  E  Q    Q    Q     
-------------------------|-----------------------|-----------------------|
-------------------------|-----------------------|-----------------------|
-----------------0--3----|-------3----5b------5--|--L--3-----------------|
-----5-----0--3----------|--5--------------------|--------5----5----3----|


  Q    Q    Q    E  E     E  E  E  E  E  E  Q       Q    Q    Q    E  E   
-----------------------|-------------------------|-----------------------|
-----------------------|-------------------------|-----------------------|
-----------------------|-----------------0--3----|-----------------------|
--5----5----5-------5--|-----5-----0--3----------|--5----5----5-------5--|


  E  E  E  E  E  E  Q       Q    Q    Q    E  E   
-------------------------|-----------------------|
-------------------------|-----------------------|
-------------------------|-----------------------|
-----5-----0--3--0--3----|--5----5----5-------5--|


  E  E  E  E  E  E  Q       Q    Q    H           H        Q     Q      
-------------------------|---------------------|-----------------------|
-------------------------|---------------------|-----------------------|
-------------------------|---------------------|----------------12\----|
-----5-----0--3--0--3----|--5------------------|-----------------------|


    Q    Q    Q    E  E     E  E  E  E  E  E  Q     
|------------------------|-------------------------|
|*-----------------------|-------------------------|
|*-----------------------|-----------------0--3----|
|---5----5----5-------5--|-----5--L--0--3----------|


  Q    Q    Q    E  E     E  E  E  E  E  E  Q       Q    Q    Q    E  E   
-----------------------|-------------------------|-----------------------|
-----------------------|-------------------------|-----------------------|
-----------------------|-------------------------|-----------------------|
--5----5----5-------5--|-----5--L--0--3--0--3----|--5----5----5-------5--|


  E  E  E  E  E  E  Q       Q    Q    Q.      E     E  E  Q    Q    Q     
-------------------------|-----------------------|-----------------------|
-------------------------|-----------------------|-----------------------|
-----------------0--3----|-------3----5b------5--|--L--3-----------------|
-----5--L--0--3----------|--5--------------------|--------5----5----3----|


  Q    Q    H           W                   W                 
---------------------|-------------------|-------------------|
---------------------|-------------------|-------------------|
---------------------|-------------------|-------------------|
--5------------------|-------------------|-------------------|


  W                   Q    Q    Q    E  E     E  E  E  E  E  E  Q     
-------------------|-----------------------|-------------------------|
-------------------|-----------------------|-------------------------|
-------------------|-----------------------|-----------------0--3----|
-------------------|--5----5----5-------5--|-----5--L--0--3----------|


  Q    Q    H           W                   Q    Q    Q    E  E   
---------------------|-------------------|-----------------------|
---------------------|-------------------|-----------------------|
---------------------|-------------------|-----------------------|
--5------------------|-------------------|--5----5----5-------5--|


  E  E  E  E  E  E  Q       Q    Q    H           W                 
-------------------------|---------------------|-------------------|
-------------------------|---------------------|-------------------|
-----------------0--3----|---------------------|-------------------|
-----5--L--0--3----------|--5------------------|-------------------|


  W                   E  E  Q    Q    Q       Q    Q    Q    E  E   
-------------------|-----------------------|-----------------------|
-------------------|-----------------------|-----------------------|
-------------------|-----------------------|-----------------------|
-------------------|-----5--0----3----4----|--5----5----5-------5--|


  E  E  E  E  E  E  Q       Q    Q    Q.      E     E  E  Q    Q    Q     
-------------------------|-----------------------|-----------------------|
-------------------------|-----------------------|-----------------------|
-----------------0--3----|-------3----5b------5--|--L--3-----------------|
-----5--L--0--3----------|--5--------------------|--------5----5----3----|


  Q    Q    E  E  E  E     Q    E  E  E  E  Q       Q    Q    E  E  E  E   
------------------------|------------------------|------------------------|
------------------------|------------------------|------------------------|
-------5-------5--L-----|--5----L--0--3----------|-------5-------5--L-----|
------------------------|----------------0--3----|------------------------|


  Q    E  E  E  E  Q       Q    Q    E  E  E  E     Q    E  E  E  E  Q     
------------------------|------------------------|------------------------|
------------------------|------------------------|------------------------|
--5----L--0--3----------|-------5-------5--L-----|--5----L--0--3----------|
----------------0--3----|------------------------|----------------0--3----|


  Q    Q    E  E  E  E     Q    E  E  E  E  Q       Q    Q    Q    E  E   
------------------------|------------------------|-----------------------|
------------------------|------------------------|-----------------------|
-------5-------5--L-----|--5----L--0--3----------|-----------------------|
------------------------|----------------0--3----|--5----5----5-------5--|


  Q    Q    Q    Q       Q    Q    Q    E  E     Q    Q    Q    Q     
----------------------|-----------------------|----------------------|
----------------------|-----------------------|----------------------|
----------------------|-----------------------|-----------------7----|
--L----0----3----0----|--8----8----8-------8--|--L----5----8---------|


  Q    Q    Q    E  E      E  E  Q    Q    Q        Q    Q    Q    E  E   
------------------------|------------------------|-----------------------|
------------------------|-----7------------------|-----------------5--7--|
--5----5----5----L--5S--|--9-----9----7----------|-----------------------|
------------------------|------------------7S----|--5----5----5----------|

[ Tab from: http://www.guitartabs.cc/tabs/j/jet/are_you_gonna_be_my_girl_btab_ver_6.html ]
  E  E  Q    Q    Q       Q    Q    Q    E  E     Q    Q    Q    Q     
-----------------------|-----------------------|----------------------|
--L--5-------5----7----|-----------------------|----------------------|
--------7--------------|-----------------------|----------------------|
-----------------------|--5----5----5-------5--|--L----5----5----7----|


  Q    Q    Q    E  E     Q    Q    Q    Q       Q    Q    Q    E  E    
-----------------------|----------------------|------------------------|
-----------------------|----------------------|------------------------|
-----------------------|-----------------4----|--5----5----5----L--5S--|
--8----8----8-------8--|--L----7----8---------|------------------------|


  E  E  Q    Q    Q        Q    Q    Q    E  E     E  E  Q    Q    Q     
------------------------|-----------------------|-----------------------|
-----7------------------|-----------------5--7--|--L--5-------5----7----|
--9-----9----7----------|-----------------------|--------7--------------|
------------------7S----|--5----5----5----------|-----------------------|


  Q    Q    E  E  E  E     W                    Q     H.            
------------------------|-------------------|----------------------|
------------------------|-------------------|----------------------|
-------7-------7--L-----|--7----------------|--10----10------------|
------------------------|-------------------|----------------------|


  W                   W                   W                 
-------------------|-------------------|-------------------|
-------------------|-------------------|-------------------|
--L----------------|-------------------|-------------------|
-------------------|-------------------|-------------------|


  W                     W                   W                 
--------------------||-------------------|-------------------|
-------------------*||-------------------|-------------------|
-------------------*||-------------------|-------------------|
--------------------||-------------------|-------------------|


  W                   W                   W                 
-------------------|-------------------|-------------------|
-------------------|-------------------|-------------------|
-------------------|-------------------|-------------------|
-------------------|-------------------|-------------------|


  W                   W                   Q    E  E  Q    Q     
-------------------|-------------------|-----------------------|
-------------------|-------------------|------------------5----|
-------------------|-------------------|----------5--7---------|
-------------------|-------------------|-----------------------|


  Q    Q    Q    E  E     E  E  E  E  E  E  Q       Q    Q    Q    E  E   
-----------------------|-------------------------|-----------------------|
-----------------------|-------------------------|-----------------------|
-----------------------|-------------------------|-----------------------|
--5----5----5-------5--|-----5--L--5--5--5--5----|--8----8----8-------8--|


  E  E  E  E  E  E  Q       Q    Q    Q    E  E   
-------------------------|-----------------------|
-------------------------|-----------------------|
-------------------------|--5----5----5-------5--|
-----8--L--8--8--8--8----|-----------------------|


  E  E  E  E  E  E  Q       Q    Q    Q    E  E     E  E  Q    Q    Q     
-------------------------|-----------------------|-----------------------|
-------------------------|-----------------------|-----------------------|
-----5-----5--5--5--5----|-----------------------|-----------------------|
-------------------------|--5----5----5-------5--|-----5--0----3----4----|


  Q    Q    Q    E  E     E  E  E  E  E  E  Q       Q    Q    Q    E  E   
-----------------------|-------------------------|-----------------------|
-----------------------|-------------------------|-----------------------|
-----------------------|-------------------------|-----------------------|
--5----5----5-------5--|-----5--L--5--5--5--5----|--8----8----8-------8--|


  E  E  E  E  E  E  Q       Q    Q    Q    E  E   
-------------------------|-----------------------|
-------------------------|-----------------------|
-------------------------|--5----5----5-------5--|
-----8--L--8--8--8--8----|-----------------------|


  E  E  E  E  E  E  Q       Q    Q    Q    E  E     E  E  Q    Q    Q     
-------------------------|-----------------------|-----------------------|
-------------------------|-----------------5--7--|--L--5-------5----7----|
-----5-----5--5--5--5----|-----------------------|--------7--------------|
-------------------------|--5----5----5----------|-----------------------|


  Q    Q    Q    E  E     Q    Q    Q    Q       Q    Q    Q    E  E   
-----------------------|----------------------|-----------------------|
-----------------------|----------------------|-----------------------|
-----------------------|----------------------|-----------------------|
--5----5----5-------5--|--L----0----3----0----|--8----8----8-------8--|


  Q    Q    Q    Q       Q    Q    Q    E  E      E  E  Q    Q    Q      
----------------------|------------------------|------------------------|
----------------------|------------------------|-----7------------------|
-----------------7----|--5----5----5----L--5S--|--9-----9----7----------|
--L----5----8---------|------------------------|------------------7S----|


  Q    Q    Q    E  E     E  E  Q    Q    Q       Q    Q    Q    E  E   
-----------------------|-----------------------|-----------------------|
-----------------5--7--|--L--5-------5----7----|-----------------------|
-----------------------|--------7--------------|-----------------------|
--5----5----5----------|-----------------------|--5----5----5-------5--|


  Q    Q    Q    Q       Q    Q    Q    E  E     Q    Q    Q    Q     
----------------------|-----------------------|----------------------|
----------------------|-----------------------|----------------------|
----------------------|-----------------------|-----------------4----|
--L----5----5----7----|--8----8----8-------8--|--L----7----8---------|


  Q    Q    Q    E  E      E  E  Q    Q    Q        Q    Q    Q    E  E   
------------------------|------------------------|-----------------------|
------------------------|-----7------------------|-----------------5--7--|
--5----5----5----L--5S--|--9-----9----7----------|-----------------------|
------------------------|------------------7S----|--5----5----5----------|


  E  E  Q    Q    Q       Q    Q    Q    E  E     Q    Q    Q    Q     
-----------------------|-----------------------|----------------------|
--L--5-------5----7----|-----------------------|----------------------|
--------7--------------|-----------------------|----------------------|
-----------------------|--5----5----5-------5--|--L----0----3----0----|


  Q    Q    Q    E  E     Q    Q    Q    Q       Q    Q    Q    E  E    
-----------------------|----------------------|------------------------|
-----------------------|----------------------|------------------------|
-----------------------|-----------------7----|--5----5----5----L--5S--|
--8----8----8-------8--|--L----5----8---------|------------------------|


  E  E  Q    Q    Q        Q    Q    E  Q    E     Q.     E  E  E  Q     
------------------------|-----------------------|-----------------------|
-----7------------------|-----------------------|-----------------------|
--9-----9----7----------|-----------------------|-----------------------|
------------------7S----|-------5-------5-------|--5------0--3--0--3----|


  Q    H.              W                  
--------------------|-------------------||
--------------------|-------------------||
--5----5------------|--L----------------||
--------------------|-------------------||




Duration Legend
---------------
W - whole
H - half
Q - quarter
E - 8th
S - 16th
T - 32nd
X - 64th
. - note dotted
|-n-|  - n-tuplets


Tablature Legend
----------------
L - tied note
x - dead note
g - grace note
(n) - ghost note
> - accentuded note
NH - natural harmonic
AH - artificial harmonic
TH - tapped harmonic
SH - semi harmonic
PH - pitch harmonic
h - hammer on
p - pull off
b - bend
br - bendRelease
pb - preBend
pbr - preBendRelease
brb - bendReleaseBend
\n/ - tremolo bar dip
\n - tremolo bar dive
-/n - tremolo bar Release up
/n\ - tremolo bar inverted dip
/n - tremolo bar return
-\n - tremolo bar Release down
S - shift slide
s - legato slide
/ -  slide into from below or out of upwards
\ -  slide into from above or out of downwards
~ - vibrato
W - wide vibrato
tr - trill
TP - tremolo picking
T - tapping
S - slap
P - pop
< - fade in
^ - brush up
v - brush down
Comments