Jet - Are You Gonna Be My Girl Chords & Tabs

 

Are You Gonna Be My Girl Chords & Tabs

Jet Chords & Tabs

Version: 4 Type: Bass Tab 0 ratings
1 star 2 stars 3 stars 4 stars 5 stars
comments

Are You Gonna Be My Girl Bass Tab

ARE YOU GONNA BE MY GIRL, tab by OLLIE. I think this tab is 100% right!!

INTRO & VERSE 1:
G|---------------------|---------------------|---------------------|
D|---------------------|---------------------|---------------------|
A|-------------------3-|---------------------|-------------------3-|
E|-5-5-5-3-5-5-0-3-5---|-5-5-5-3-5-5-0-5-0-3-|-5-5-5-3-5-5-0-3-5---|

G|------------------|
D|------------------|
A|---3-5-5-5-3------|
E|-5------------5-3-|

G|---------------------|---------------------|---------------------|
D|---------------------|---------------------|---------------------|
A|-------------------3-|---------------------|-------------------3-|
E|-5-5-5-3-5-5-0-3-5---|-5-5-5-3-5-5-0-5-0-3-|-5-5-5-3-5-5-0-3-5---|

G|------------------|
D|------------------|
A|------------------|
E|-5----------------|

G|---------------------|---------------------|---------------------|
D|---------------------|---------------------|---------------------|
A|-------------------3-|---------------------|-------------------3-|
E|-5-5-5-3-5-5-0-3-5---|-5-5-5-3-5-5-0-5-0-3-|-5-5-5-3-5-5-0-3-5---|

G|------------------|
D|------------------|
A|---3-5-5--5-3-----|
E|-5------------5-3-|

G|-----------------------|
D|-----------------------|
A|-------------------3---|
E|-5-5-5-3-5-5-0-3-5---5-|

G|-----------------------|
D|-----------------------|
A|-------------------3---|
E|-5-5-5-3-5-5-0-3-5---5-|

G|---------|---------------------|------------------|
D|---------|---------------------|------------------|
A|---------|-------------------3-|---3-5-5--5-3-----|
E|-0-2-3-4-|-5-5-5-3-5-5-0-3-5---|-5------------5-3-|

BRIDGE:
G|-------------|-------------|-------------|-------------|
D|-------------|-------------|-------------|-------------|
A|-5-5-5--0-3--|-5-5-5--0-3--|-5-5-5--0-3--|-5-5-5--0-3--|
E|------------5|------------5|------------5|------------5|

CHORUS:
G|---------------------|---------------------|
D|---------------------|---------------------|
A|-------------------3-|-------------------6-|
E|-5-5-5-3-5-5-0-3-5---|-8-8-8-6-8-8-0-6-8---|

G|----------------------------------|-------------------|
D|----------------------------------|-------------------|
A|------------------10-12--10-------|-------------------|
E|-10-10-10-8-10-12-----------12-10-|-5-5-5-3-5-3-0-3-5-|
[ Tab from: http://www.guitartabs.cc/tabs/j/jet/are_you_gonna_be_my_girl_btab_ver_4.html ]
G|---------------------|---------------------|
D|---------------------|---------------------|
A|-------------------3-|-------------------6-|
E|-5-5-5-3-5-5-0-3-5---|-8-8-8-6-8-8-0-6-8---|

G|----------------------------------|-------------------|-------------|
D|----------------------------------|-------------------|-2-2-2---5-5-|
A|------------------10-12--10-------|-------------------|-------------|
E|-10-10-10-8-10-12-----------12-10-|-5-5-5-3-5-3-0-3-5-|-------------|

VERSE 2:
G|---------------------|---------------------|---------------------|
D|---------------------|---------------------|---------------------|
A|-------------------3-|---------------------|-------------------3-|
E|-5-5-5-3-5-5-0-3-5---|-5-5-5-3-5-5-0-5-0-3-|-5-5-5-3-5-5-0-3-5---|

G|------------------|
D|------------------|
A|---3-5-5--5-3-----|
E|-5------------5-3-|

G|-----------------------|
D|-----------------------|
A|-------------------3---|
E|-5-5-5-3-5-5-0-3-5---5-|

G|-----------------------|
D|-----------------------|
A|-------------------3---|
E|-5-5-5-3-5-5-0-3-5---5-|

G|---------|---------------------|------------------|
D|---------|---------------------|------------------|
A|---------|-------------------3-|---3-5-5--5-3-----|
E|-0-2-3-4-|-5-5-5-3-5-5-0-3-5---|-5------------5-3-|

BRIDGE:
G|-------------|-------------|-------------|-------------|
D|-------------|-------------|-------------|-------------|
A|-5-5-5--0-3--|-5-5-5--0-3--|-5-5-5--0-3--|-5-5-5--0-3--|
E|------------5|------------5|------------5|------------5|

CHORUS:
G|---------------------|---------------------|
D|---------------------|---------------------|
A|-------------------3-|-------------------6-|
E|-5-5-5-3-5-5-0-3-5---|-8-8-8-6-8-8-0-6-8---|

G|----------------------------------|-------------------|
D|----------------------------------|-------------------|
A|------------------10-12--10-------|-------------------|
E|-10-10-10-8-10-12-----------12-10-|-5-5-5-3-5-3-0-3-5-|

G|---------------------|---------------------|
D|---------------------|---------------------|
A|-------------------3-|-------------------6-|
E|-5-5-5-3-5-5-0-3-5---|-8-8-8-6-8-8-0-6-8---|

G|----------------------------------|-------------------|-------------|
D|----------------------------------|-------------------|-2-2-2---5-5-|
A|------------------10-12--10-------|-------------------|-------------|
E|-10-10-10-8-10-12-----------12-10-|-5-5-5-3-5-3-0-3-5-|-------------|

FINISH!! Now, just play it!
Comments