Jet - Are You Gonna Be My Girl Chords & Tabs

 

Are You Gonna Be My Girl Chords & Tabs

Jet Chords & Tabs

Version: 3 Type: Bass Tab 0 ratings
1 star 2 stars 3 stars 4 stars 5 stars
comments

Are You Gonna Be My Girl Bass Tab

*------------------------------------------*
| Artist:    Jet                           |
| Title:     Are You Gonna Be My Girl?     |
| Notes:     Slightly overdrived           |
| Tabbed by: vi3x (vi3x@libero.it) |
*------------------------------------------*

INTRO - Tambourine 6/4 - Bass rest, then:

G|--------------------|---------------------|
D|--------------------|---------------------|
A|------------------3-|---------------------|
E|-5-5-5--5-5--0h3h5--|-5-5-5--5-5--0h3-0h3-|

G|--------------------|-------------------|
D|--------------------|-------------------|
A|------------------3-|---3-5/6\5-3-------|
E|-5-5-5--5-5--0h3h5--|-5----------5-5--3-|

* DRUMS *

G|--------------------|---------------------|
D|--------------------|---------------------|
A|------------------3-|---------------------|
E|-5-5-5--5-5--0h3h5--|-5-5-5--5-5--0h3-0h3-|

G|-----------------------|-------------|
D|-----------------------|-------------|
A|-----------------------|-G-U-I-T-A-R-|
E|-5-5-5--5-5--0h3-0h3-5-|-------------|

VERSE 1 - play INTRO, rest 8/4 then play

G|---------------------|--------------|---------------------|----------------|
D|---------------------|--------------|---------------------|----------------|
A|------------------3--|--V-O-I-C-E---|------------------3--|-V-O-I-C-E------|
E|-5-5-5--5-5--0h3h5-5-|------0h3-0h3-|-5-5-5--5-5--0h3h5-5-|-----0h3-3--0h3-|
[ Tab from: http://www.guitartabs.cc/tabs/j/jet/are_you_gonna_be_my_girl_btab_ver_3.html ]
G|--------------------|-------------------|
D|--------------------|-------------------|
A|------------------3-|---3-5/6\5-3-------|
E|-5-5-5--5-5--0h3h5--|-5----------5-5--3-|

PRECHORUS
G|----------------|
D|----------------|
A|-5-5-5--5p3-0h3-| x4
E|----------------|

CHORUS
G|---------------------|----------------------|------------------|-----------------------|
D|---------------------|--------------------2-|-0-0-0-5h7p5------|-------5h7p5------5h7--|
A|---------------------|-3-3-3--3-3--3-3p2h3--|------------7\3---|------------7-5h7------| x2
E|-5-5-5--5-5--5-5-5-5-|----------------------|---------------3--|-5-5-5-----------------|

G|----------------|-----------|
D|----------------|-----------|
A|-7--7--7/10-10~-|-V-O-I-C-E-|
E|----------------|-----------|

VERSE 2 - play INTRO, rest 8/4 then play VERSE 1
PRECHORUS
CHORUS

CODA - rest 8/4, then
G|---------------------|---------------------|---------|
D|---------------------|---------------------|-----5-7-|
A|---------------------|---------------------|-3h5-----|
E|-5-5-5--5-5--5-5-5-5-|-5-5-5--5-5--5-5-5-5-|---------|

G|---------------------|---------------------|---------------------|---------------------|
D|---------------------|---------------------|-0-0-0--0-0--0-0-0-0-|---------------------|
A|---------------------|-3-3-3--3-3--3-3-3-3-|---------------------|---------------------| x2
E|-5-5-5--5-5--5-5-5-5-|---------------------|---------------------|-5-5-5--5-5--5-5-5-5-|

CHORUS (first part) x3
Comments