Jet - Are You Gonna Be My Girl Chords & Tabs

 

Are You Gonna Be My Girl Chords & Tabs

Jet Chords & Tabs

Version: 2 Type: Bass Tab 0 ratings
1 star 2 stars 3 stars 4 stars 5 stars
comments

Are You Gonna Be My Girl Bass Tab

-INTRO 1-

G|------------------------------------------|
D|------------------------------------------|
A|-------------------3----------------------|
E|-5-5-5--5-5-0--3-5----5-5-5--5-5-0--3-0-3-|

G|------------------------------------------|
D|------------------------------------------|
A|-------------------3----3-5--5-5-3--------|
E|-5-5-5--5-5-0--3-5----5-------------5-5-3-|

G|------------------------------------------|
D|------------------------------------------|
A|-------------------3----------------------|
E|-5-5-5--5-5-0--3-5----5-5-5--5-5-0--3-0-3-|

G|------------------------------------------|
D|------------------------------------------|
A|-------------------3----------------------|
E|-5-5-5--5-5-0--3-5----5---------------15\-|

G|------------------------------------------|
D|------------------------------------------|
A|-------------------3----------------------|
E|-5-5-5--5-5-0--3-5----5-5-5--5-5-0--3-0-3-|

G|------------------------------------------|
D|------------------------------------------|
A|-------------------3----3-5--5-5-3--------|
E|-5-5-5--5-5-0--3-5----5-------------5-5-3-|

-VERSE- (0:31, 1:35)

G|-------------------------------------------------------------|
D|-------------------------------------------------------------|
A|--------------------------3--------12\---------------------3-|
E|-5------5-5-5--5-5-0--3-5----5-----------5-5-5--5-5-0--3-5---|

G|--------------------------------------------------------|
D|--------------------------------------------------------|
A|---------------------------------3----3-5--5-5-3--------|
E|-5------0-3-4--5-5-5--5-5-0--3-5----5-------------5-5-3-|

-PRE CHORUS- (0:51, 1:55)

G|----------------|
D|----------------|
A|-5--5--5--5-3---| (x4)
E|--------------3-|

-CHORUS- (1:00, 2:04, 2:58)
[ Tab from: http://www.guitartabs.cc/tabs/j/jet/are_you_gonna_be_my_girl_btab_ver_2.html ]
G|-------------------------------------------|
D|-------------------------------------------|
A|-----------------------------------------7-|
E|-5-5-5--5-5-5-5-5-5-7-0--8-8-8--8-8-7--8---|

G|-------------------------------------------|
D|--------------------------7-5-7-5----5--7--|
A|--------------7---7---------------7--------|
E|-5-5-5--5-7/9---9---7\5-5------------------|

G|-------------------------------------------|
D|-------------------------------------------|
A|-----------------------------------------7-|
E|-5-5-5--5-5-5-5-5-5-7-0--8-8-8--8-8-7--8---|

G|-------------------------------------------|
D|--------------------------7-5-7-5----5--7--|
A|--------------7---7---------------7--------|
E|-5-5-5--5-7/9---9---7\5-5------------------|

G|-------------------------|
D|-------------------------|
A|-7--7--7---7-7-7-7-7-10*-|
E|-------------------------|

-BASS FILL- (2:40)

G|-------|
D|-----5-|
A|-5-7---|
E|-------|

-GUITAR SOLO- (2:41)

G|--------------------------------------------|
D|--------------------------------------------|
A|--------------------------------------------|
E|-5-5-5--5-5-5--5-5-5--8-8-8--8-8-8--8-8-8---|

G|-----------------------------------------|
D|-----------------------------------------|
A|-5-5-5--5-5-5--5-5-5---------------------|
E|----------------------5-5-5-0-5--5-0-2-3-|

-END- (3:17)

G|-------------------------------------------|
D|-------------------------------------------|
A|-----------------------------------------7-|
E|-5-5-5--5-5-5-5-5-5-7-0--8-8-8--8-8-7--8---|

G|-------------------------------------------|
D|--------------------------7-5-7-5----5--7--|
A|--------------7---7---------------7--------|
E|-5-5-5--5-7/9---9---7\5-5------------------|

G|--------------------------|
D|--------------------------|
A|---------------------5-5*-|
E|-5-5--5--5--5-3-0-3-------|
Comments