Jesus Lizard - Puss Chords & Tabs

 

Puss Chords & Tabs

Jesus Lizard Chords & Tabs

Version: 1 Type: Bass Tab 0 ratings
1 star 2 stars 3 stars 4 stars 5 stars
comments

Puss Bass Tab

   
-----------------------------------------------------------------------
						  PUSS - The Jesus Jizard
-----------------------------------------------------------------------

By: Don Murta 

Riff A:
G-------------------------------
D-------------------------------
A-3-3-3-3-3-3-3-1-1-1-1-1-1-1-1-
E-------------------------------

Riff B:
G-------0-----------------------------------------------------
D---1-3---3-1-------------------------------------------------
A-3-----------3-1-1-1-1-1-1-1-1-3-3-3-3-3-3-3-1-1-1-1-1-1-1-1-
E-------------------------------------------------------------
[ Tab from: http://www.guitartabs.cc/tabs/j/jesus_lizard/puss_btab.html ]
Riff C:
G-------0---------------------------------------------------
D---1-3---3-1-----------------------0-2-0-------------------
A-3-----------3-1-1-1-1-1-1-1-1-0-3-------3-0---------------
E---------------------------------------------4-4-4-4-4-4-4-

Riff D:
G-----------------
D-----------------
A-----------------
E-3-3-3-3-3-3-3-3-

Riff E:
G-------------------------------------------------
D-------------------------------------------------
A-----------4-----------4-----------4-----------4-
E-1-1-4-4-4---1-1-4-4-4---6-6-4-4-4---6-6-4-4-4---

Song Order:	Riff A x 4
			Riff B x 2
			Riff C x 2
			Riff D x 1
			Riff E x 2
			Riff A x 4
			Riff B x 2
			Riff C x 2
			Riff D x 1
			Riff E x 2
			Riff A x 4
			Break
			Riff B x 2
			Riff C x 4
			Riff D x 1
			
=======================================================================


Comments