Jesus Lizard - Monkey Trick Chords & Tabs

 

Monkey Trick Chords & Tabs

Jesus Lizard Chords & Tabs

Version: 2 Type: Bass Tab 0 ratings
1 star 2 stars 3 stars 4 stars 5 stars
comments

Monkey Trick Bass Tab

Here's the bass tab for The Jesus Lizard song "Monkey Trick". Well, that's
what it was meant to be. But being just a beginning bass player, I expect
I've made tons of errors. So, if anyone can correct them, I'd be grateful.
I need the correct tab ASAP so that my band can cover the song. Thanks.

Mihajlo Lalich
Croatia
mike_lalich@yahoo.com
ICQ: 23130155

intro:
E-9-9-9-9-9-9-9-9------------------------------------------------------------
A----------------------------------------------------------------------------
D----------------------------------------------------------------------------
G----------------------------------------------------------------------------
[ Tab from: http://www.guitartabs.cc/tabs/j/jesus_lizard/monkey_trick_btab_ver_2.html ]
main theme:
E-5-5--5--5--5--5--5--5--5--5--5--5--5--5-5-5-7-8-5-8-9-8-9------------------
A----------------------------------------------------------------------------
D----------------------------------------------------------------------------
G----------------------------------------------------------------------------

chorus:
E-6-4-4-4-6-6-6--6-4-4-4-6-6-6--6-4-4-4-6-6-6--6-4-4-4-6-6-------------------
A----------------------------------------------------------------------------
D----------------------------------------------------------------------------
G----------------------------------------------------------------------------

bridge:
E-10--7--7--7--7-7-9-10-7-10-11-10-11----------------------------------------
A----------------------------------------------------------------------------
D----------------------------------------------------------------------------
G----------------------------------------------------------------------------
Comments