Jesus Lizard - Monkey Trick Chords & Tabs

 

Monkey Trick Chords & Tabs

Jesus Lizard Chords & Tabs

Version: 1 Type: Bass Tab 0 ratings
1 star 2 stars 3 stars 4 stars 5 stars
comments

Monkey Trick Bass Tab

   
Correction for "Monkey Trick" by The Jesus Lizard From the Album "Goat" 

Origionally posted by Mihajlo Lalich (mike_lalich@yahoo.com)
Corrected and reposted by Fish (afisher@warp.nfld.net)

This tab is intended for private study use only. The song transcribed below is the 
property of the artist and nither I, nor the Bass Tab Archive will be held responsible 
for the misusage of this tab.

This song is best played in standard E tuning (E,A,D,G)

Intro:
[ Tab from: http://www.guitartabs.cc/tabs/j/jesus_lizard/monkey_trick_btab.html ]
G----------------
D----------------
A-6-6-6-6-6-6-6-6
E----------------

Verse:

G----------------------------------------
D-----------------------------------4---3
A-3-3-3-3-3-3-3-3-3-3-3-3-3-5-6-5-6---6--
E----------------------------------------


Chorus:

G----------------------------------------------------------
D----------------------------------------------------------
A-------------------------------------------6-6-6-6-6-6-6-6
E-6p4-4-4-4-4-4-6p4-4-4-4-4-4-6p4-4-4-4-4-4----------------

I think this is basically it, just listen to the song to get the timing down.

Tabbed By Fish ( A Proud Soldier of the Bass Tab Army )

Comments