Jesus Lizard - Fly On The Wall Chords & Tabs

 

Fly On The Wall Chords & Tabs

Jesus Lizard Chords & Tabs

Version: 1 Type: Bass Tab 0 ratings
1 star 2 stars 3 stars 4 stars 5 stars
comments

Fly On The Wall Bass Tab

Group: The Jesus Lizard
Song:  Fly On The Wall
Album: Down
Tabbed:Don Murta 

Verse:
G|-----------|
D|---------0-|
A|-----2-----|
E|-0-0---3---|

Chorus:
G|-------------------------------------|
D|-----0-0-0-0-0-0-0-0-0-0-0-0-0-0-0-0-|
A|-0-2---------------------------------|
E|-------------------------------------|
[ Tab from: http://www.guitartabs.cc/tabs/j/jesus_lizard/fly_on_the_wall_btab.html ]
G|-----------------------------------------------------|
D|---------------------0-0-0-0-0-0-0-0-0-0-0-0-0-0-0-0-|
A|-0-1-3-3-3-1-1-1-1-1---------------------------------|
E|-----------------------------------------------------|

G|---------------------0-2-------------------|
D|-------------------------0-2-----------0-2-|
A|-0-1-3-3-3-1-1-1-1-1---------0-2---0-2-----|
E|---------------------------------3---------|

G|-7-9--------------------0-2-------------------|
D|-----7-9------------7-9-----0-2-----------0-2-|
A|---------7-9----7-9-------------0-2---0-2-----|
E|-------------10---------------------3---------|

Comments