Jesus Lizard - Blockbuster Chords & Tabs

 

Blockbuster Chords & Tabs

Jesus Lizard Chords & Tabs

Version: 1 Type: Bass Tab 0 ratings
1 star 2 stars 3 stars 4 stars 5 stars
comments

Blockbuster Bass Tab

Group: The Jesus Lizard
Song:  Blockbuster
Album: Head/Pure
Tabbed:Don Murta 

Verse:
G|---------------------------------------------------------------|
D|---------------------------------------------------------------|
A|-3-3-4-4-------------------------------------------------------|
E|---------3-3-3-3-3-3-3-3-3-3-3-3-3-3-3-3-3-3-3-3-3-3-3-3-3-3-3-|
[ Tab from: http://www.guitartabs.cc/tabs/j/jesus_lizard/blockbuster_btab.html ]
Chorus:
G|-----------------0-0-------------------------------------|
D|---------2-2-1-1-----1-1-------------------------2-2-----|
A|-2-2-3-3---------------------------------4-4-3-3-----3-3-|
E|-------------------------3-3-3-3-3-3-3-3-----------------|

G|-------------------------0-0-------------------------------------|
D|-----------------2-2-1-1-----1-1-------------------------2-2-----|
A|-------------------------------------------------4-4-3-3-----3-3-|
E|-3-3-3-3-3-3-3-3-----------------3-3-3-3-3-3-3-3-----------------|

Somewhere around 2:00
G|-----------------|
D|-------5-------4-|
A|-----------------|
E|-0-3-3---0-3-3---|

Comments