Jesus And Mary Chain - Sugar Ray Solo Chords & Tabs

 

Sugar Ray Solo Chords & Tabs

Jesus And Mary Chain Chords & Tabs

Version: 1 Type: Tab 0 ratings
1 star 2 stars 3 stars 4 stars 5 stars
comments

Sugar Ray Solo Tab

   
#----------------------------------PLEASE NOTE---------------------------------#
#This file is the author's own work and represents their interpretation of the #
#song. You may only use this file for private study, scholarship, or research. #
#------------------------------------------------------------------------------##
From: ba06118@bingsuns.cc.binghamton.edu ()
Subject: CRD: Sugar Ray - JAMC


Sugar Ray - Jesus and Mary Chain
Transcribed by Michael Gartley
ba06118@bingsuns.cc.binghamton.edu

Note: when you are playing the F# chords, you can lift your finger off
the E string and put it back to follow the bassline, like
d---4-4-
a---4-4-
e-0-2-2-

[ Tab from: http://www.guitartabs.cc/tabs/j/jesus_and_mary_chain/sugar_ray_solo_tab.html ]
Solo:
  F#
e-------------------------------
b-------------------------------
g-------------------------------
d-------------------------------
a-----0-2---2b3-------0-2---0---  x 4
e-2-2-------------2-2-----------

  B
e----------------
b----------------
g----------------
d----------------
a-----0-2---2b3-- x 2
e-2-2------------

C#
e-------------------
b-------------------
g-------------------
d-------------------
a-2h4-4-4-4-4-4-4-4- x 2
e-------------------


    e C#  B   A  F#
e-------------------
b-------------------
g-------------------
d---2---------------
a-----4---2---0-----
e-----------------2-


outro:
  F#         e   B
d---------------------
a-2s9--------7---2---- keep repeating
e---------------------

chords used:

e       022100
F#      244xxx
G#      466xxx
A       x0222x
B       x2444x
C#      x4666x
Comments