Jesus And Mary Chain - Sometimes Always Solo Chords & Tabs

 

Sometimes Always Solo Chords & Tabs

Jesus And Mary Chain Chords & Tabs

Version: 1 Type: Tab 0 ratings
1 star 2 stars 3 stars 4 stars 5 stars
comments

Sometimes Always Solo Tab

   
#----------------------------------PLEASE NOTE---------------------------------#
#This file is the author's own work and represents their interpretation of the #
#song. You may only use this file for private study, scholarship, or research. #
#------------------------------------------------------------------------------#

Date: Thu, 28 Nov 1996 12:05:54 EST
From: Brian F Mojica 

Sometimes Always
from the album "Stoned and Dethroned"
tabbed by Brian Mojica 
lyrics courtesy of Brian Mojica 

h = hammer on
p = pull off
/ = slide up
\ = slide down
~ = vibrato
^ = bend (half-, full-, two-steps etc. specified)
rb=release bend

capo IV

A    D

Verse: A D


Solo 1
      A                       D                   A
|---------------------------|-------------------|-------------------------|
|---------------------------|-------------------|-------------------------|
|---------------------------|-------------------|-------------------------|
|-(2)h4---2---2-------------|-------------------|-------2---2-------------|
|-----------------2^f-2rb---|-------2^f-2rb-----|-2h4-----------2^f-2rb---|
|-------------------------5-|-2---2---------5-2-|-----------------------5-|
[ Tab from: http://www.guitartabs.cc/tabs/j/jesus_and_mary_chain/sometimes_always_solo_tab.html ]
  D                   A                     D                     A
|-------------------|---------------------|---------------------|---------------|
|-------------------|---------------------|---------------------|---------------|
|-------------------|---------------------|---------------------|---------------|
|-------------------|---------------------|---------------------|---2-----2---2-|
|-------2^h-2rb-----|-2^f-2rb-------2---2-|-2^f-2rb-------2---2-|-4-----4-------|
|-2---2---------5-2-|---------5-2-5---5---|---------5-2-5---5---|---------------|

  D                     A  (oh, you^Òre a lucky son...)
|---------------------|---------------|
|---------------------|---------------|
|---2---4-4^f-4rb-2---|-2-------------|
|-4-----------------4-|---------------|
|---------------------|---------------|
|---------------------|---------------|


solo 2
      A                       D                   A
|---------------------------|-------------------|---------------------|
|---------------------------|-------------------|---------------------|
|---------------------------|-------------------|---------------------|
|-(2)h4---2---2-------------|-------------------|-----2---2-----------|
|-----------------2^f-2rb---|-------2^f-2rb---2-|-4---------2^f-2rb---|
|-------------------------5-|-2---2---------5---|-------------------5-|

  D                   A                     D                     A
|-------------------|---------------------|---------------------|-----------------|
|-------------------|---------------------|---------------------|-----------------|
|-----------------4-|-4^f-4rb-2---2-4-2-4-|-4^f-4rb-2---2-4-2---|-----------------|
|-------------------|-----------4---------|-----------4---------|---2-----2---2-4-|
|-------2^f-2rb-----|---------------------|-------------------2-|-4-----4---------|
|-2---2---------5---|---------------------|---------------------|-----------------|

  D                 A  (I got down...)
|-----------------|-------------------|
|-----------------|-------------------|
|-2---4^f-4rb-2---|-2-----------------|
|---------------4-|-------------------|
|-----------------|-------------------|
|-----------------|-------------------|
Comments