Jesus And Mary Chain - Between Planets Solo Chords & Tabs

 

Between Planets Solo Chords & Tabs

Jesus And Mary Chain Chords & Tabs

Version: 1 Type: Tab 0 ratings
1 star 2 stars 3 stars 4 stars 5 stars
comments

Between Planets Solo Tab

   
#----------------------------------PLEASE NOTE---------------------------------#
#This file is the author's own work and represents their interpretation of the #
#song. You may only use this file for private study, scholarship, or research. #
#------------------------------------------------------------------------------#
From: ppalmer@mahogany.cray.com (Peter Palmer)
Message-Id: 
Subject: j/Jesus.And.Mary.Chain/BetweenPlanets.crd
To: jamesb@animal-farm.nevada.edu
Date: Tue, 23 Nov 93 9:27:03 CST
X-Mailer: ELM [version 2.3 PL11b-CRI]


Between Planets

by William Reid and Jim Reid 
performed by The Jesus and Mary Chain on the album Automatic

Another great 3 chorder.  This one only works if you barre the
chords.



G#     C#   D#
4------4----6----------------------||
4------6----8----------------------||
5------6----8----------------------||
6------6----8----------------------||
6------4----6----------------------||
4----------------------------------||

Intro:


G#                C#      D#
==============================

G#                C#      D#
==============================



Solo  (it's close, repeat as necessary)


----------------------------------------------------------||
----------------------------------------------------------||
----------------------------------------------------------||
----------------------------------------------------------||    repeat
---------------------1--3-----------------------3--1------||
4--4-4-4--4-4-4--4-4------4--4-4-4--4-4-4--4-4------------||

----------------------------------------------------------||
----------------------------------------------------------||
----------------------------------------------------------||
----------------------------------------------------------||
3-------1---------------------1---------------------------||
-------------------4--------------------------------------||
[ Tab from: http://www.guitartabs.cc/tabs/j/jesus_and_mary_chain/between_planets_solo_tab.html ]
----------------------------------------------------------||
---------------------------------------------4--4-4-4-----||
3-5---3-5-----3-5---3------3-5---3-5---3-5----------------||             repeat
----------------------6-----------------------------------||
----------------------------------------------------------||
----------------------------------------------------------||



-----------------------------------------------------------------||
-----------------------------------------------------------------||
-----------------------------------------------------------------||   repeat
---------------------------------------------1--1-1-1------------||
1-3---1-3---1-3----1-----1-3---1-3---1-3-------------------------||
---------------------4-------------------------------------------||


*********************************************************************************************************
*********************************************************************************************************



From: ppalmer@cray.com (Peter Palmer)
Subject: CRD:Blues From A Gun - Jesus and Mary Chain

Blues From a Gun

by William Reid and Jim Reid 
performed by The Jesus and Mary Chain on the album Automatic

Intro chords:

F#  A   E
2---5---0---------------------------||-
2---5---0---------------------------||-
3---6---1---------------------------||-
4---7---2---------------------------||-
------------------------------------||-
------------------------------------||-

Intro:
F# / /A F# / / /E F#  repeat as necessary
Easy to do:  Start with the F# and slide up to A and down to E

Verse chords:

F#  B   C#  E  E (barre)
2---2---4---0--7------------------------||-
2---4---6---0--9------------------------||-
3---4---6---1--9------------------------||-
4---4---6---2--9------------------------||-
2---2---4---2--7------------------------||-
2-----------0---------------------------||-

Comments