Jessie James - Shoes Chords & Tabs

 

Shoes Chords & Tabs

Jessie James Chords & Tabs

Version: 1 Type: Tab 0 ratings
1 star 2 stars 3 stars 4 stars 5 stars
comments

Shoes Tab

#----------------------------------PLEASE NOTE---------------------------------#
#This file is the author's own work and represents their interpretation of the #
#song. You may only use this file for private study, scholarship, or research. #
#------------------------------------------------------------------------------#

Song: Shoes
Artist: Jessie James
Tabbed By: Adam Himself
baddassad@hotmail.com

Standard Tunning


Into
[ Tab from: http://www.guitartabs.cc/tabs/j/jessie_james/shoes_tab.html ]
e------------------------------------------
B------------------------------------------
G--7xx---------------------------7--------- 
D--7xx--7xx--9xx--4xx--5xx--7xx--7---------
A--5xx--7xx--9xx--4xx--5xx--7xx--5---------
E-------5xx--7xx--2xx--3xx--5xx------------


Versus Alternate Strumming 
e------------------------------------------
B------------------------------------------
G--77777-----------------------------------
D--77777--77777--99999--55555--------------
A--55555--77777--99999--55555--------------
E---------55555--77777--33333--------------

e------------------------------------------
B------------------------------------------
G--77777-----------------------------------
D--77777--77777--99999--55555--7-----------
A--55555--77777--99999--55555--7-X10-------
E---------55555--77777--33333--5-----------


you can work out the rest u lazzy fucko
Comments