Jessie J - Price Tag Chords & Tabs

 

Jessie J Chords & Tabs

Version: 2 Type: Tab 0 ratings
1 star 2 stars 3 stars 4 stars 5 stars
comments

Price Tag Tab

   
Tabbed by Kill0Switch, people requested it so I figured that I'd do it.

Chords (played on keyboard or some synth thing)

Chords all the way through. F, Am, Dm, Bb.

Strum the whole chord then for the guitar part you play the three 
higher strings of the chord. To do this as one guitar just play it like 
this.

   F            Am            Dm             Bb
e|-1-1-1-1-1-1--0-0-0-0-0-0---5-5-5-5-5-5----6-6-6-6-6-6---------------------|
B|-1-1-1-1-1-1--1-1-1-1-1-1---6-6-6-6-6-6----6-6-6-6-6-6---------------------|
G|-2-2-2-2-2-2--2-2-2-2-2-2---7-7-7-7-7-7----7-7-7-7-7-7---------------------|
D|-3------------2-------------7--------------8-------------------------------|
A|-3------------0-------------5--------------8-------------------------------|
E|-1-----------------------------------------6-------------------------------|

For the chorus I just play the chords with a little drive to add a little
more "oomph" but you don't need to, plus you can hear the high bit there as
well but I just find it easier to play the chords to give it a bit of a
difference to the verses.

During BOB's part there is a guitar part that goes like this.

   F                   Am
e|-13/17-17-17-17-15---12/15-15-15-15-12---|
B|-13/17-17-17-17-15---13/15-15-15-15-12---|
G|-----------------------------------------|
D|-----------------------------------------|
A|-----------------------------------------|
E|-----------------------------------------|


  Dm                    Bb
e|-10/13-13-13-13-13-10-------------------|
B|-10/13-13-13-13-13-10-------------------|
G|----------------------------------------|
D|------------------------------12--15----|
A|-----------------------12/15------------|
E|----------------------------------------|

                         ^^^not sure about this part because it's very faint.
[ Tab from: http://www.guitartabs.cc/tabs/j/jessie_j/price_tag_tab_ver_2.html ]
Chorus Vocal melody, this could be turned into a solo if 
you want, I worked it out spontaneously so could be a 
little lead part. Play around with it I guess.

    
   It's not  ab- out  the   mon-  ey  mon-  ey  mon-  ey.
e|--13---13--13---13---13----17---13---17---13---17---13V--------------------|
B|---------------------------------------------------------------------------|
G|---------------------------------------------------------------------------|
D|---------------------------------------------------------------------------|
A|---------------------------------------------------------------------------|
E|---------------------------------------------------------------------------|
   We  don't  need your  mon-  ey  mon-  ey  mon-  ey.
e|-12---12-----12---12----15---12---15---12---15---12v-----------------------|
B|---------------------------------------------------------------------------|
G|---------------------------------------------------------------------------|
D|---------------------------------------------------------------------------|
A|---------------------------------------------------------------------------|
E|---------------------------------------------------------------------------|

   We  just  wan-  na  make  the   world  dance
  For- get    ab- out  the  _____ price   tag
e|---------------------------------------------------------------------------|
B|-17--17-----17---17---17---17---17b(18)--15v-------------------------------|
G|---------------------------------------------------------------------------|
D|---------------------------------------------------------------------------|
A|---------------------------------------------------------------------------|
E|---------------------------------------------------------------------------|

V=Vibrato
/=Slide
b=bend up to fret in brackets.

Hope you enjoyed my tab. I'm pretty sure it's all right.

Comments