Jessica Simpson - With You Chords & Tabs

 

With You Chords & Tabs

Jessica Simpson Chords & Tabs

Version: 1 Type: Tab 0 ratings
1 star 2 stars 3 stars 4 stars 5 stars
comments

With You Tab

   
"With You"
by Jessica Simpson
Tabbed by Tyler R-dollar
(interty77@yahoo.com)

This tab is for an acoustic, it can be either flatpicked or fingerpicked.
I am just giving the verse, pre-chorus and Chorus. I am not sure how
to play the bridge, but the song is in the key of Dm (F maj).


VERSE: (The real me...)

    Dm7   C/E    F                  C      Bb
E:--------------------------------------------6---|
B:------------------6---(10p8)----------------6---|
G:------5----5----5----------(10)------9------7---|
D:----7----5----7--------------------10-----8-----|
A:--5----7----8--------------------10------8------|
E:--------------------------------8-------6-------|

PRE-CHORUS: (I'm still thinkin' about it...)
[ Tab from: http://www.guitartabs.cc/tabs/j/jessica_simpson/with_you_tab.html ]
    Dm   Bb   F    C       Dm   F    C    Gm
E:-------6---(8)---8----  -----(8)---8---(10)--|
B:-(6)---6----10---8----  (6)---10---8----11---|
G:--7----7----10---9----OR-7----10---9----12---|
D:--7----8----10---10---  -7----10---10---12---|
A:--5----8----8----10---  -5----8----10---10---|
E:-------6---------8----  -----------8---------|

CHORUS: (With you, I can...)

    Bb Fmaj7   C    Gm  (OR Gm7)
E:--6---(8)----8----(10)--(10)---|
B:--6----10----8-----12----12----|
G:--7----9-----9-----12----11----|
D:--8----10----10----12----12----|
A:--8----8-----10----10----10----|
E:--6----------8-----------------|

Things about the tab:
I didn't list strumming patterns, and I don't even know if those are the right chords 
exact chords).  I saw the song played live in Central Park, and I figured out most of it 
that.  The only discrepancy that I have is the first Dm7 chord used in the verse.  It may be x535xx instead. 
I just play the Dm7 because you can keep the 5th fret barred the 
time.

Other than that, have fun with it.  I am not a big Jessica Simpson fan, but this song 
me.  If you have any questions, use my email at the top. Enjoy

Tyler
Comments