Jessica Pickett - Dont Come Around Chords & Tabs

 

Dont Come Around Chords & Tabs

Jessica Pickett Chords & Tabs

Version: 1 Type: Tab 0 ratings
1 star 2 stars 3 stars 4 stars 5 stars
comments

Dont Come Around Tab

standard tuning
this is one of my own songs



intro

e-----------------------------------------------------------------------------------------
b-----------------------------------------------------------------------------------------
g--1-1-1-1-1-1--2-2-2-2-2-2--1-1-1-1-1-1--2-2-2-2-2-2-------------------------------------
D--1-1-1-1-1-1--2-2-2-2-2-2--1-1-1-1-1-1--2-2-2-2-2-2-------------------------------------
A--2-2-2-2-2-2---------------2-2-2-2-2-2--------------------------------------------------
E-----------------------------------------------------------------------------------------

e-----------------------------------------------------------------------------------------
b-----------------------------------------------------------------------------------------
g--1-1-1-1-1-1--2-2-2-2-2-2--1-1-1-1-1-1--2-2-2-2-2-2-------------------------------------
D--1-1-1-1-1-1--2-2-2-2-2-2--1-1-1-1-1-1--2-2-2-2-2-2-------------------------------------
A--2-2-2-2-2-2---------------2-2-2-2-2-2--------------------------------------------------
E-----------------------------------------------------------------------------------------

[ Tab from: http://www.guitartabs.cc/tabs/j/jessica_pickett/dont_come_around_tab.html ]
e---------------------2-2-2-2-2-2----------------2-2-2-2-2-2-2-2-2-2-2-2------------------
b------1-1-1-1-1-1----3-3-3-3-3-3---1-1-1-1-1-1--3-3-3-3-3-3-3-3-3-3-3-3------------------
g---------------------2-2-2-2-2-2----------------2-2-2-2-2-2-2-2-2-2-2-2------------------
D------2-2-2-2-2-2------------------2-2-2-2-2-2-------------------------------------------
A------3-3-3-3-3-3------------------3-3-3-3-3-3-------------------------------------------
E-----------------------------------------------------------------------------------------


chorus:
Don't come around and ask me how i've been 
don't come around and ask me who i am you don't know who i am....

verse 2:

e-----------------------------------------------------------------------------------------
b-----------------------------------------------------------------------------------------
g--1-1-1-1-1-1--2-2-2-2-2-2--1-1-1-1-1-1--2-2-2-2-2-2-------------------------------------
D--1-1-1-1-1-1--2-2-2-2-2-2--1-1-1-1-1-1--2-2-2-2-2-2-------------------------------------
A--2-2-2-2-2-2---------------2-2-2-2-2-2--------------------------------------------------
E-----------------------------------------------------------------------------------------

chorus: x2

Bridge: la day da da da da da da da    la day da da da da da da da
la da da da da da da da da la day da da da da da


end on the la day da's of the bridge
and there you go
Comments