Jesse Mccartney - Shes No You Chords & Tabs

 

Shes No You Chords & Tabs

Jesse Mccartney Chords & Tabs

Version: 1 Type: Tab 0 ratings
1 star 2 stars 3 stars 4 stars 5 stars
comments

Shes No You Tab

   
Jesse McCartney
"She's No You"

Very simple to play as long as you get the rythym down.

This is played through the entire song except the bridge obviously.

          C               G                D                A
[ Tab from: http://www.guitartabs.cc/tabs/j/jesse_mccartney/shes_no_you_tab.html ]
e |-------0---------------2----------------2----------------0---------|
b |-----1---1-----------2---2------------3---3------------2---2-------|
g |----0-----0---0-----0-----0---0------2-----2---2------2-----2---2--|
d |------------2---------------0------0---------0----------------2----|
a |--3-------------------------------------------------0--------------|
E |------------------3------------------------------------------------|

   
BRIDGE:
          C               D   G                                

e |-------0-----0----0----2---2--------2---2---2----------------------|
b |------1----1----1------3---2------2---2---2------------------------|
g |----0----0----0--------2---0----0---0---0--------------------------|
d |-------------------------------------------------------------------|
a |--3----------------------------------------------------------------|
E |-------------------------------------------------------------------|
Comments