Jesse Mccartney - Because You Lived Chords & Tabs

 

Because You Lived Chords & Tabs

Jesse Mccartney Chords & Tabs

Version: 1 Type: Tab 0 ratings
1 star 2 stars 3 stars 4 stars 5 stars
comments

Because You Lived Tab

Song : Because you lived
Artist : Jesse McCartney
Tuning : Standard
Tabbed by : Silas. xillusiv3x

*Note : Follow Strumming pattern (:
        
Intro

e|------------------------------------|
b|------0----10----8----12--10--------|
g|----9-----9-----9--------9----------|
d|--0------0-----0--------------------|
a|------------------------------------|
e|------------------------------------|

e|------------------------------------|
b|------0----10----8--7---------------|
g|----9-----9-----------9-------------|
d|--0------0--------------------------|
a|------------------------------------|
e|------------------------------------|

Intro/Verse

0:26

e|--3-----3----|
b|--3-----3----|
g|--5-----4----|  X2
d|--5-----5----|
a|--3-----5----|
e|--3-----3----|

e|--3-----3--3-|
b|--5-----3--3-|
g|--5-----5--4-|  
d|--5-----5--5-|
a|--3-----3--5-|
e|--3-----3--3-|

Chorus

0:42

e|--5---------5-----5--5-------------|
b|--7---------5-----5--7-------------|
g|--7---------6-----7--7-------------|
d|--7---------7-----7--7-------------|
a|--5---------7-----5--5-------------|
e|--5---------5-----5--5-------------|
because you live...

e|--5--5----5---5------4-------------|
b|--7--5----5---5------5-------------|
g|--7--7----6---7------6-------------|
d|--7--7----7---7------6-------------|
a|--5--5----7---5------4-------------|
e|--5--5----5---5------4-------------|
make me belive...
e|--5--5-----5-----------------------|
b|--7--5-----5-----------------------|
g|--7--7-----6-----------------------|
d|--7--7-----7-----------------------|
a|--5--5-----7-----------------------|
e|--5--5-----5-----------------------|
Beacause you 
e|--5---5----------------------------|
b|--7---5----------------------------|
g|--7---6----------------------------|
d|--7---7----------------------------|
a|--5---7----------------------------|
e|--5---5----------------------------|  
Live girl...
e|--5---5---5------------------------|
b|--7---5---5------------------------|
g|--7---6---7------------------------|
d|--7---7---7------------------------|
a|--5---7---5------------------------|
e|--5---5---5------------------------|
Twice as many stars in the sky...

Verse

1:02

e|-----------------------------------|
b|------0----10----8----12--10-------|
g|----9-----9-----9--------9---------|
d|--0------0-----0-------------------|
a|-----------------------------------|
e|-----------------------------------|
[ Tab from: http://www.guitartabs.cc/tabs/j/jesse_mccartney/because_you_lived_tab.html ]
e|-----------------------------------|
b|------0----10----8--7--------------|
g|----9-----9-----------9------------|
d|--0------0-------------------------|
a|-----------------------------------|
e|-----------------------------------|

e|--3-----3----|
b|--3-----3----|
g|--5-----4----|  X2
d|--5-----5----|
a|--3-----5----|
e|--3-----3----|

e|--3-----3--3-|
b|--5-----3--3-|
g|--5-----5--4-|  
d|--5-----5--5-|
a|--3-----3--5-|
e|--3-----3--3-|

Chorus repeat at 1:33

1:52

e|--5--5-----5--------4----5---------|
b|--7--5-----5--------4----5---------|
g|--7--7-----6--------6----7---------|
d|--7--7-----7--------6----7---------|
a|--5--5-----7--------5----5---------|
e|--5--5-----5--------4----5---------|
Because you live...

Bridge

2:02

e|--3---------3-----3----------------|
b|--5---------3-----3----------------|
g|--5---------5-----4----------------|X3
d|--5---------5-----5----------------|
a|--3---------3-----5----------------|
e|--3---------3-----3----------------|

e|--3----------3---------------------|
b|--3----------5---------------------|
g|--5----------5---------------------|
d|--5----------5---------------------|
a|--3----------3---------------------|
e|--3----------3---------------------|

Chorus 2 with diff sound

2:20

e|--7---------7-----7--7-------------|
b|--9---------7-----7--9-------------|
g|--9---------8-----9--9-------------|
d|--9---------9-----9--9-------------|
a|--7---------9-----7--7-------------|
e|--7---------7-----7--7-------------|
because you live...

e|--7--7----7---7------6-------------|
b|--9--7----7---7------7-------------|
g|--9--9----8---9------8-------------|
d|--9--9----9---9------8-------------|
a|--7--7----9---7------6-------------|
e|--7--7----7---7------6-------------|
make me belive...
e|--7--7-----7-----------------------|
b|--9--7-----7-----------------------|
g|--9--9-----8-----------------------|
d|--9--9-----9-----------------------|
a|--7--7-----9-----------------------|
e|--7--7-----7-----------------------|
Beacause you 
e|--7---7----------------------------|
b|--9---7----------------------------|
g|--9---8----------------------------|
d|--9---9----------------------------|
a|--7---9----------------------------|
e|--7---7----------------------------|  
Live girl...
e|--7---7---7------------------------|
b|--9---7---7------------------------|
g|--9---8---9------------------------|
d|--9---9---9------------------------|
a|--7---9---7------------------------|
e|--7---7---7------------------------|
Twice as many stars in the sky...

Ending 

e|--5--5---|
b|--7--5---|
g|--7--7---|
d|--7--7---|
a|--5--5---|
e|--5--5---|
Comments