Jesse James - Dear Jesus Chords & Tabs

 

Dear Jesus Chords & Tabs

Jesse James Chords & Tabs

Version: 1 Type: Tab 0 ratings
1 star 2 stars 3 stars 4 stars 5 stars
comments

Dear Jesus Tab

Jesse James are an english ska/punk band this song
 is from thier second album mission

Intro
Guitar 1+2
------------------------------------|
------------------------------------|
---7-----4-------------7------------|
---7-x16-4-x16--5------7-x16--------|     x2
---5-----2------5-x16--5------------|
----------------3-------------------|
PM..................................

Dear Jesus, i dont believe in you no more.
Dear Jesus, I think you should know the score
I never met you cos you lived a long long time ago
Not to upset you, but theres somthing you should know

Bridge
guitar 1

------------------|
------------------|
--------------7---|
---7--7--7--7-7---|
---7--7--7--7-5---|   x1
---5--5--5--5-----|

Verse
guitar 2
------------------------------------|
------------------------------------|
---7-----4-------------7------------|
---7-x16-4-x16--5------7-x16--------|   x2
---5-----2------5-x16--5------------|
----------------3-------------------|
PM..................................

guitar 1
-----------------------------------------|
-----------------------------------------|
---7-----4-------------7-------------7---|   x2
---7-x16-4-x16--5------7-x8--7-7-7-7-5---|
---5-----2------5-x16--5-----5-5-5-5-5---|
----------------3------------5-5-5-5-----|
PM...........................
[ Tab from: http://www.guitartabs.cc/tabs/j/jesse_james/dear_jesus_tab.html ]
Born in a stable, is the story we were told
You had a beard and you wore a lot of shitty clothes
You walked on water then you held a kickin' party on the beach
And the people gathered round to watch you talk and heal and preach
Made a bunch of bread and fishes, turnin' water into wine,
sure I'd be a true believer if i'd been there at the time

Chorus

Intro
Guitar 1+2
------------------------------------|
------------------------------------|
---7-----4-------------7------------|
---7-x16-4-x16--5------7-x16--------| x2
---5-----2------5-x16--5------------|
----------------3-------------------|

Dear Jesus, i aint buying all this shit
Dear Jesus I dont want no part of this
I'm not sure what you had in mind but im sure it wasnt this
I met a couple cool cristians but the rest just take the piss
They say its not cool to be gay becasue that aint no family
and they make you give them money when you see them on tv


Interlude
Guitar 1+2

Listen to cd for strum patterns
----------------------------------|
----------------------------------|
--7--3--2------7------------------|
--5--3--2--5---7-xlots and lots---|
--5--1--0--5---5------------------|
-----------3----------------------|


Verse 2
guitar 2
------------------------------------|
------------------------------------|
---7-----4-------------7------------|
---7-x16-4-x16--5------7-x16--------|   x2
---5-----2------5-x16--5------------|


***************************************

This is my first Guitar tab

E-mail any comments to tompeacock48@hotmail.com
Comments