Jesper Kyd - Venice Rooftops Chords & Tabs

 

Venice Rooftops Chords & Tabs

Jesper Kyd Chords & Tabs

Version: 2 Type: Tab

Venice Rooftops Tab

Acoustic guitar
Standard tuning

e|----------------|--0--0-0--0-0-0-|--0--0-0--0-0-0-|-0--0-0-1-1-1-1-|
B|--3--3-3--3-3-3-|--3--3-3--3-3-3-|--3--3-3--3-3-3-|-1--1-1-3-3-3-3-|
G|--2--2-2--2-2-2-|--2--2-2--2-2-2-|--2--2-2--2-2-2-|-2--2-2-2-2-2-2-|
D|--0--0-0--0-0-0-|--0--0-0--0-0-0-|--0--0-0--0-0-0-|-0--0-0-0-0-0-0-|
A|----------------|----------------|----------------|----------------|
E|----------------|----------------|----------------|----------------|

e|----------------|--0--0-0--0-0-0-|--1--1-1--1-1-1-|--3--3-3--3-3-3-|
B|--3--3-3--3-3-3-|--3--3-3--3-3-3-|--3--3-3--3-3-3-|--3--3-3--3-3-3-|
G|--2--2-2--2-2-2-|--2--2-2--2-2-2-|--2--2-2--2-2-2-|--2--2-2--2-2-2-|
D|--0--0-0--0-0-0-|--0--0-0--0-0-0-|--0--0-0--0-0-0-|--0--0-0--0-0-0-|
A|----------------|----------------|----------------|----------------|
E|----------------|----------------|----------------|----------------|

e|--5--5-5--5-5-5-|--5--5-5--5-5-5-|--5--5-5--5-5-5-|--5--5-5--5-5-5-|
B|--3--3-3--3-3-3-|--3--3-3--3-3-3-|--3--3-3--3-3-3-|--3--3-3--3-3-3-|
G|--2--2-2--2-2-2-|--2--2-2--2-2-2-|--2--2-2--2-2-2-|--2--2-2--2-2-2-|
D|--0--0-0--0-0-0-|--0--0-0--0-0-0-|--0--0-0--0-0-0-|--0--0-0--0-0-0-|
A|----------------|----------------|----------------|----------------|
E|----------------|----------------|----------------|----------------|

e|--5--5-5--5-5-5-|--6--6-6--6-6-6-|--6--6-6--6-6-6-|--8--8-8--8-8-8-|
B|--x--x-x--x-x-x-|--x--x-x--x-x-x-|--x--x-x--x-x-x-|--x--x-x--x-x-x-|
G|--7--7-7--7-7-7-|--7--7-7--7-7-7-|--7--7-7--7-7-7-|--7--7-7--7-7-7-|
D|--7--7-7--7-7-7-|--7--7-7--7-7-7-|--7--7-7--7-7-7-|--7--7-7--7-7-7-|
A|--5--5-5--5-5-5-|--5--5-5--5-5-5-|--5--5-5--5-5-5-|--5--5-5--5-5-5-|
E|----------------|----------------|----------------|----------------|

0:39 - 0:54

e|---------1-1-1-1-|3-3-3-33-5-5-5-5-|---------1-1-1-1-|3-3-3-33-1-1-1-1-|
B|3-3-3-33-3-3-3-3-|3-3-3-33-6-6-6-6-|3-3-3-33-3-3-3-3-|3-3-3-33-3-3-3-3-|
G|2-2-2-22-2-2-2-2-|2-2-2-22-7-7-7-7-|2-2-2-22-2-2-2-2-|2-2-2-22-2-2-2-2-|
D|0-0-0-00-0-0-0-0-|0-0-0-00-7-7-7-7-|0-0-0-00-0-0-0-0-|0-0-0-00-0-0-0-0-|
A|-----------------|-----------------|-----------------|-----------------|
E|-----------------|-----------------|-----------------|-----------------|

Play that twice

0:54 - 1:47

e|----------------|--0--0-0--0-0-0-|--0--0-0--0-0-0-|--1--1-1--1-1-1-|
B|--3--3-3--3-3-3-|--3--3-3--3-3-3-|--3--3-3--3-3-3-|--3--3-3--3-3-3-|
G|--2--2-2--2-2-2-|--2--2-2--2-2-2-|--2--2-2--2-2-2-|--2--2-2--2-2-2-|
D|--0--0-0--0-0-0-|--0--0-0--0-0-0-|--0--0-0--0-0-0-|--0--0-0--0-0-0-|
A|----------------|----------------|----------------|----------------|
E|----------------|----------------|----------------|----------------|

Play that set of bars 2 Times
[ Tab from: http://www.guitartabs.cc/tabs/j/jesper_kyd/venice_rooftops_tab_ver_2.html ]
e|--5--5-5--5-5-5-|--5--5-5--5-5-5-|--5--5-5--5-5-5-|--5--5-5--5-5-5-|
B|--3--3-3--3-3-3-|--3--3-3--3-3-3-|--3--3-3--3-3-3-|--3--3-3--3-3-3-|
G|--2--2-2--2-2-2-|--2--2-2--2-2-2-|--2--2-2--2-2-2-|--2--2-2--2-2-2-|
D|--0--0-0--0-0-0-|--0--0-0--0-0-0-|--0--0-0--0-0-0-|--0--0-0--0-0-0-|
A|----------------|----------------|----------------|----------------|
E|----------------|----------------|----------------|----------------|

Play that set of bars 5 Times

e|---------1-1-1-1-|3-3-3-33-5-5-5-5-|-----------------|-----------------|
B|3-3-3-33-3-3-3-3-|3-3-3-33-6-6-6-6-|3-3-3-33-3-3-3-3-|3-3-3-33-3-3-3-3-|
G|2-2-2-22-2-2-2-2-|2-2-2-22-7-7-7-7-|2-2-2-22-2-2-2-2-|2-2-2-22-2-2-2-2-|
D|0-0-0-00-0-0-0-0-|0-0-0-00-7-7-7-7-|0-0-0-00-0-0-0-0-|0-0-0-00-0-0-0-0-|
A|-----------------|-----------------|-----------------|-----------------|
E|-----------------|-----------------|-----------------|-----------------|

1:47 - 2:25

e|---------1-1-1-1-|3-3-3-33-5-5-5-5-|---------1-1-1-1-|3-3-3-33-1-1-1-1-|
B|3-3-3-33-3-3-3-3-|3-3-3-33-6-6-6-6-|3-3-3-33-3-3-3-3-|3-3-3-33-3-3-3-3-|
G|2-2-2-22-2-2-2-2-|2-2-2-22-7-7-7-7-|2-2-2-22-2-2-2-2-|2-2-2-22-2-2-2-2-|
D|0-0-0-00-0-0-0-0-|0-0-0-00-7-7-7-7-|0-0-0-00-0-0-0-0-|0-0-0-00-0-0-0-0-|
A|-----------------|-----------------|-----------------|-----------------|
E|-----------------|-----------------|-----------------|-----------------|

Play that 3 times

e|----------------|--0--0-0--0-0-0-|--0--0-0--0-0-0-|--1--1-1--1-1-1-|
B|--3--3-3--3-3-3-|--3--3-3--3-3-3-|--3--3-3--3-3-3-|--3--3-3--3-3-3-|
G|--2--2-2--2-2-2-|--2--2-2--2-2-2-|--2--2-2--2-2-2-|--2--2-2--2-2-2-|
D|--0--0-0--0-0-0-|--0--0-0--0-0-0-|--0--0-0--0-0-0-|--0--0-0--0-0-0-|
A|----------------|----------------|----------------|----------------|
E|----------------|----------------|----------------|----------------|

Play that 2 times

2:25 - End

e|----------------|--0--0-0--0-0-0-|--0--0-0--0-0-0-|--1--1-1--1-1-1-|
B|--3--3-3--3-3-3-|--3--3-3--3-3-3-|--3--3-3--3-3-3-|--3--3-3--3-3-3-|
G|--2--2-2--2-2-2-|--2--2-2--2-2-2-|--2--2-2--2-2-2-|--2--2-2--2-2-2-|
D|--0--0-0--0-0-0-|--0--0-0--0-0-0-|--0--0-0--0-0-0-|--0--0-0--0-0-0-|
A|----------------|----------------|----------------|----------------|
E|----------------|----------------|----------------|----------------|

Play that 2 times

e|----------------|--0--0-0--0-0-0-|--0--0-0--0-0-0-|--0--0-0--0-0-0-|
B|--3--3-3--3-3-3-|--3--3-3--3-3-3-|--1--1-1--1-1-1-|--0--0-0--0-0-0-|
G|--2--2-2--2-2-2-|--2--2-2--2-2-2-|--2--2-2--2-2-2-|--2--2-2--2-2-2-|
D|--0--0-0--0-0-0-|--0--0-0--0-0-0-|--0--0-0--0-0-0-|--0--0-0--0-0-0-|
A|----------------|----------------|----------------|----------------|
E|----------------|----------------|----------------|----------------|

Play that 2 times