Jerry Doucette - Mama Let Him Play Chords & Tabs

 

Mama Let Him Play Chords & Tabs

Jerry Doucette Chords & Tabs

Version: 1 Type: Tab 0 ratings
1 star 2 stars 3 stars 4 stars 5 stars
comments

Mama Let Him Play Tab

Guess this isnt a real popular song huh? :P  p.s. this is my first tab so...

anyways, this is my favorite part right before the solo
e|-----------|---------------|---------------|---------------|
B|-----------|---------------|---------------|---------------|
G|-----------|---------------|---------------|---------------|
D|-2-0-------|-2-0-----------|-0-------------|-0-------------|
A|-----4-2-0-|-----4-2-0-2-4-|---4-2h4p2p0---|---4-2h4p2p0---|
E|-----------|---------------|-------------3-|-------------3-|

e|---------------|------------------------------|
B|---------------|------------------------------|
G|---------------|------------------------2---2-|
D|-0-------------|-0------------------------2---|
A|---4-2h4p2p0---|---4-2h4p2p0---0-2/4-0--------|
E|-------------2-|-------------2----------------|

e|---------------|------------------------------|
B|---------------|------------------------------|
G|---------------|------------------------2---2-|
D|-0-------------|-0------------------------2---|
A|---4-2h4p2p0---|---4-2h4p2p0---0-2/4-0--------|
E|-------------2-|-------------2----------------|

e|-----------|-------------------|---------------|----------------|
B|-----------|-------------------|---------------|----------------|
G|-----------|-------------------|---------------|----------------|
D|-2-0-------|-2-0---------------|-0-------------|-0--------------|
A|-----4-2-0-|-----4-2h4p2-0-2-4-|---4-2h4p2p0---|---4-2hp4p2p0---|
E|-----------|-------------------|-------------3-|--------------3-|
[ Tab from: http://www.guitartabs.cc/tabs/j/jerry_doucette/mama_let_him_play_tab.html ]
e|---------------|-----------------------------------|
B|---------------|-----------------------------------|
G|---------------|-----------------------------------|
D|-0-------------|-0------------------------5/7-5--7-|
A|---4-2h4p2p0---|---4-2h4p2p0---0-2/4-0--0----------|
E|-------------2-|-------------2---------------------|

                            x2
e|----------------------------|-----------------------------|
B|----------------------------|-----------------------------|
G|----------------------------|-----------------------------|
D|-7--7-4-7--4-7--7--7-4-7-9b-|-7--7-4-7--4-7--7-7-4-7--5-4-|
A|-0--0-0-0--0-0--0--0-0-0-0--|-0--0-0-0--0-0--0-0-0-0--0-0-|
E|----------------------------|-----------------------------|

e|------------------------------------|------------------------------------|
B|------------------------------------|------------------------------------|
G|---------------------9--------------|------------------------------------|
D|-7--7-4-7--4-7--9/11---11p9---------|-----7----7---------7----7------7---|
A|-0--0-0-0--0-0--------------12-9-12-|-7h9--h9--h9--7h9--h9--h9---7h9--h9-|
E|------------------------------------|------------------------------------|
                                      keep your finger on the 7's and hit 9

e|-----------------------------------|
B|-----------------------------------|
G|-----------------------------------|
D|-----5---5--------5---5--------5---|
A|-7h9--h9--h9--7h9--h9--h9--7h9--h9-|
E|-----------------------------------|

and thats as far as i got, enjoy:D  tell me if theres any mistakes
Comments