Jerry Cantrell - She Was My Girl Chords & Tabs

 

She Was My Girl Chords & Tabs

Jerry Cantrell Chords & Tabs

Version: 1 Type: Tab 0 ratings
1 star 2 stars 3 stars 4 stars 5 stars
comments

She Was My Girl Tab

Jerry Cantrell
She Was My Girl
[ Tab from: http://www.guitartabs.cc/tabs/j/jerry_cantrell/she_was_my_girl_tab.html ]
Intro/Verse
eb:-|----------------------------------|-
Bb:-|----------------------------------|-
Gb:-|----------------------------------|-
Db:-|--4-4--4/5-5-5--4-4--4/5-5-5-5-2--|-
Ab:-|--2-2--2/3-3-3--2-2--2/3-3-3-3-0--|-
Eb:-|----------------------------------|-

Chorus
eb:-|------------------------------|-
Bb:-|------------------------------|-
Gb:-|---4-4-5-5--2-2-2-2-2-2-2-----|-
Db:-|---4-4-5-5--2-2-2-2-2-2-2-----|-
Ab:-|---2-2-3-3--0-0-0-0-0-0-0-----|-
Eb:-|------------------------------|-
Comments