Jerry Cantrell - Settling Down Chords & Tabs

 

Settling Down Chords & Tabs

Jerry Cantrell Chords & Tabs

Version: 1 Type: Tab 0 ratings
1 star 2 stars 3 stars 4 stars 5 stars
comments

Settling Down Tab

Jerry Cantrell
Settling Down

Tuning: Standard, because of the piano intro, the whole tab is in standard.

---------------3-1---------------------------------------------I
-------3-----1-------------------------------------------------I
---0-2-----2---------------------------------------------------I
-0-------3-----------3-----------------------------------------I
-------------------3-------------------------------------------I
---------------------------------------------------------------I
This is what's the piano is playing, DM-FMaj.It repeats the whole verse.    

[ Tab from: http://www.guitartabs.cc/tabs/j/jerry_cantrell/settling_down_tab.html ]
---------------------------------------------------------------I
--4-4-----3----------------------------------------------------I
--4-4-----3----------------------------------------------------I
--4-4-----3----------------------------------------------------I
--2-2-----1----------------------------------------------------I
---------------------------------------------------------------I
This is the 'I don't i think i can trust.....' part. The 'Settling      

 
-0-1-----------------------------------------------------------I
-1-1-----------------------------------------------------------I
-2-2-----------------------------------------------------------I
-3-3-----------------------------------------------------------I
-0-3-----------------------------------------------------------I
---1-----------------------------------------------------------I
down' part is Fmaj7(but i'm not sure)-F.The rest this all repeats exept:    

 
-1---1---------------------------------------------------------I
-3---1---------------------------------------------------------I
-2---2---------------------------------------------------------I
-0---3---------------------------------------------------------I
-----3---------------------------------------------------------I
-----1---------------------------------------------------------I
The 'oh i better lay down & rest awhile' part is Dm-F. And there is a solo,
 in Dminor pentatonic.
Comments