Jerry Cantrell - My Song Chords & Tabs

 

My Song Chords & Tabs

Jerry Cantrell Chords & Tabs

Version: 1 Type: Bass Tab 0 ratings
1 star 2 stars 3 stars 4 stars 5 stars
comments

My Song Bass Tab

Jerry Cantrell
My Song

riff.1:x4(0:18)           every second time play:
Gb|----------------------|------------------------|
Db|----------------------|------------------------|
Ab|--3-55----------------|--3-55------------3333--|
Eb|-------6666666666666--|-------6666666666-------|

riff.2:x2
Gb|---------------------------------------|
Db|--------------55-----------------------|
Ab|--3-55-----33----3-55------------------|
Eb|-------666------------66666666666-111--|

riff.1:x5

riff.2:x2

riff.1:x1
[ Tab from: http://www.guitartabs.cc/tabs/j/jerry_cantrell/my_song_btab.html ]
riff.3:x1
Gb|---------------------------------------------------------|
Db|---------------------------------------------------------|
Ab|--------------------------------------------------7------|
Eb|--3-0-3-5--0-5-3--0-3-5--0-5-3--0-3-5--0-5-3--0-3--------|

riff.3b:x1
Gb|------------------------------|
Db|------------------------------|
Ab|------------------------------|
Eb|--3-0-3-5--0-5-3--0-3-5--0-5--|

riff.3c:x1                 riff.3d:(dont play yet)
Gb|----------------------|----------------------|
Db|---------------5------|----------------------|
Ab|-----------------77---|----------------------|
Eb|--6--5-3-55--6--------|--6--5-3-55-5^5-3-0~--|

riff.3b:x1
riff.3c:x3
riff.3d:x1
There is no bass for a few bars.
riff.1:x6(2:18)
riff.2:x2
riff.1:x1
riff.3:x1
riff.3b:x1
riff.3c:x2
riff.3:x1
riff.3b:x1
riff.3c:x3
riff.3d:x1(let last note fade out with song)
Comments