Jerry Cantrell - Dickeye Chords & Tabs

 

Dickeye Chords & Tabs

Jerry Cantrell Chords & Tabs

Version: 1 Type: Tab 0 ratings
1 star 2 stars 3 stars 4 stars 5 stars
comments

Dickeye Tab

   
Jerry Cantrell
Dickeye

Tuning:  down 1/2 step

/ = slide up
\ = slide down
^ = palm mute
x = string mute

INTRO - play this riff several times

electric w/distortion

       D5    E5     G5    A5      B5
e    --------------------------------------|
B    --------------------------------------|
G    --7-----9\----------------------------|
D    --7-----9\-----5-----7--7--7/9--9-----|
A    --5--0--7\-----5-----7--7--7/9--9-----|
E    ------------0--3--0--5--5--5/7--7--0--|
          ^      ^     ^		^

VERSE - play this about 8 times
[ Tab from: http://www.guitartabs.cc/tabs/j/jerry_cantrell/dickeye_tab.html ]
       D5    E5     G5    A5      B5	D5    E5     G5    A5      B5
e    --------------------------------|--------------------------------------|
B    --------------------------------|--------------------------------------|
G    --7-----9\----------------------|--7-----9\----------------------------|
D    --7-----9\-----5-----7--7--7/9--|--7-----9\-----5-----7--7--7/9--9-----|
A    --5--0--7\-----5-----7--7--7/9--|--5--0--7\-----5-----7--7--7/9--9-----|
E    ------------0--3--0--5--5--5/7--|------------0--3--0--5--5--5/7--7--0--|
          ^      ^     ^		   ^      ^     ^		 ^
       Once round outside and check the door_
       Only thing he came here lookin' for_

Gtr 2 - played on top of the stuff above

e    ---------------------|
B    --x--7--7--(7)-------|
G    --x--9--7--(7)-------|
D    ---------------------|
A    ---------------------|
E    ---------------------|
		One man wasting another man_
		One hand washes the other hand.


CHORUS

       B5		    A5
e    --------------------|-------------------------------------|
B    --------------------|-------------------------------------|
G    --------------------|-------------------------------------|
D    --9--9--9--9--9--9--|--7--7--7--7--7--7--7--7--7--7--7----|
A    --9--9--9--9--9--9--|--7--7--7--7--7--7--7--7--7--7--7----|
E    --7--7--7--7--7--7--|--5--5--5--5--5--5--5--5--5--5--5----|
       Born_		    traitor...
Comments