Jerry Cantrell - Breaks My Back Chords & Tabs

 

Breaks My Back Chords & Tabs

Jerry Cantrell Chords & Tabs

Version: 1 Type: Tab 0 ratings
1 star 2 stars 3 stars 4 stars 5 stars
comments

Breaks My Back Tab

Jerry Cantrell
Breaks My Back

Tuning: 
1/2 step down

First Guitar: 
Eb:--------------------------------------------------------------------|
Bb:---10--10---10-s--8--8v------8--8--s--2------12----12hs-12hs-12hf---|
Gb:---11--11---11------------------------------------------------------|
Db:--------------------------------------------------------------------|
Ab:--------------------------------------------------------------------|
Eb:--------------------------------------------------------------------|

Eb:--------------------------------------------------------------------|
Bb:---10-10v---8-10--10fb-p-8------------------------------------------|
Gb:---------------------------------------9----------------------------|
Db:--------------------------------------------------------------------|
Ab:--------------------------------------------------------------------|
Eb:--------------------------------------------------------------------|
[ Tab from: http://www.guitartabs.cc/tabs/j/jerry_cantrell/breaks_my_back_tab.html ]
Eb:--------------------------------------------------------------------|
Bb:--------------------------------------------------3-----------------|
Gb:-----------------------------------4---4hs-----5------5--------4v---|
Db:---5--------7v------5--------7--------------5-----------------------|
Ab:--------------------------------------------------------------------|
Eb:--------------------------------------------------------------------|

Eb:---------------------------13p12--------12---------12p10-------10---|
Bb:---8-s-10------------10------------10--------10-------------10------|
Gb:--------------10----------------------------------------------------|
Db:-----------------12-------------------------------------------------|
Ab:--------------------------------------------------------------------|
Eb:--------------------------------------------------------------------|


fb = full step bend
hs = half step bend
v = vibrato
s = slide
p = pull off
h = hammer on
Comments