Jerry Cantrell - Anger Rising Chords & Tabs

 

Anger Rising Chords & Tabs

Jerry Cantrell Chords & Tabs

Version: 2 Type: Tab 0 ratings
1 star 2 stars 3 stars 4 stars 5 stars
comments

Anger Rising Tab

'Anger rising' by Jery Cantrell

Tabbed By Richie

The other guy's intro was right,So check that out


[ Tab from: http://www.guitartabs.cc/tabs/j/jerry_cantrell/anger_rising_tab_ver_2.html ]
E|------------------------------------|
B|------------------------------------|
G|------------------------------------|
D|--7-/-9-9-9-------------------------|
A|--5-/-7-7-7--5-5-5-4-4-4-4-3-3-3-3--|
E|-------------3-3-3-2-2-2-2-1-1-1-1--|
             Pm---------------------|  


Solo

E|----------------------------9^-9-7---| Just play this afew times
B|---8-8-x-x-8-8-x-8-x-8-8-8-------9~~-|
G|---7-7-x-x-7-7-x-7-x-7-7-7-----------|
D|---6-6-x-x-6-6-x-6-x-6-6-6-----------|
A|---7-7-x-x-7-7-x-7-x-7-7-7-----------|
E|-------------------------------------|
Comments