Jerry Cantrell - Anger Rising Chords & Tabs

 

Anger Rising Chords & Tabs

Jerry Cantrell Chords & Tabs

Version: 1 Type: Bass Tab 0 ratings
1 star 2 stars 3 stars 4 stars 5 stars
comments

Anger Rising Bass Tab

Jerry Cantrell
Anger Rising

Intro
Gb--------------------------------------------------------------------|
Db--------------------------------------------------------------------|
Ab----------------------3---------------------------------------------|
Eb---7-----5-----1------------3-------2------0----0-0-0-0-0-0-0-0-0-0-|

Main Verse (Repeat Many Times)
[ Tab from: http://www.guitartabs.cc/tabs/j/jerry_cantrell/anger_rising_btab.html ]
Gb------------------------------------|
Db------------------------------------|
Ab---------5----------------------5---|
Eb---5-7-7---2-2-2-0-1-1-1-0-0--5---5-|

Chorus

Gb-------------------------------|
Db-------------------------------|
Ab----------5--------------------|
Eb---5-7-5-----7---1--2--5-5-7-7-|
Then:

Main Verse
Chorus
Intro
Main Verse
Chorus
Main Verse
Chorus
Intro
Comments