Jerry Cantrell - Angel Eyes Chords & Tabs

 

Angel Eyes Chords & Tabs

Jerry Cantrell Chords & Tabs

Version: 1 Type: Tab 0 ratings
1 star 2 stars 3 stars 4 stars 5 stars
comments

Angel Eyes Tab

#-----------------------------------------------------------------------------#
#-- File created with Instab - http://www.pconline.com/~smcarey/instab.html --#
#-----------------------------------------------------------------------------#

Author/Artist: Jerry Cantrell
Title: Angel Eyes
Album: Degradation Trip
Transcribed by: John Jasunas
Email: Cliff_Hammett471@yahoo.com
[ Tab from: http://www.guitartabs.cc/tabs/j/jerry_cantrell/angel_eyes_tab.html ]
-0-0-0--3-3--x-x--x-x-x-x--0-0-0-0-0-0-0-0-0-0-0-0-0--------------------------|
-0-0-0--3-3--3-3--3-3-3-3--0-0-0-0-0-0-0-0-0-0-0-0-0--------------------------|
-0-0-0--0-0--2-2--0-0-0-0--2-2-2-2-2-2-2-2-2-2-2-2-2--------------------------|
-2-2-2--0-0--0-0--2-2-2-2--2-2-2-2-2-2-2-2-2-2-2-2-2--------------------------|
-2-2-2--2-2--0-0--3-3-3-3--0-0-0-0-0-0-0-0-0-0-0-0-0--------------------------|
-0-0-0--3-3--x-x--x-x-x-x--0-0-0-0-0-0-0-0-0-0-0-0-0--------------------------|
 Tune Down 1 Whole step Sorry I only have the intro

------------------------------------------------------------------------------|
------------------------------------------------------------------------------|
------------------------------------------------------------------------------|
------------------------------------------------------------------------------|
------------------------------------------------------------------------------|
------------------------------------------------------------------------------|
Comments