Jerome Kern - Smoke Gets In Your Eyes Chords & Tabs

 

Smoke Gets In Your Eyes Chords & Tabs

Jerome Kern Chords & Tabs

Version: 1 Type: Tab 0 ratings
1 star 2 stars 3 stars 4 stars 5 stars
comments

Smoke Gets In Your Eyes Tab

this was made by someone else in my school... i forgot who though... happy playing!


SMOKE GETS IN YOUR EYES

|------------------------|------------------------|||---------------0--------|
|------2-------0---------|-----0----------2-------|||-3----3-----2-----3--0--|
|----2--2----------------|---0---0-----------0----|||----2---2---------------|
|--0---------4---4-------|-------------2----------|||-0----------------------|
|----------2-------------|-----------0------------|||------------------------|
|------------------------|-0----------------------|||------------2-----1-----|


[ Tab from: http://www.guitartabs.cc/tabs/j/jerome_kern/smoke_gets_in_your_eyes_tab.html ]
|---3--------2---5--3--0-|-10-------10------------|-10--------12--10--6--7-|
|-------0----0-----------|-------7-----------7----|----0----0--0-----------|
|-----0---0---------3----|-----7----------7-------|-0----7-----------------|
|------------------------|---7---------8----------|------------------------|
|------------0-----------|-0--------0-------------|------------------------|
|---0--------------------|------------------------|------------0-----------|



|-9---------7--5---------|-5--------7---5---------|--2---------------------|
|------7----------0--3---|-----0---------------0--|-------2-------0--------|
|------------------------|---0---0----------------|-----2---2--------------|
|----7------4-----3------|------------------7-----|--0----------4---4------|
|-0------0---------------|----------0-------------|-----------2------------|
|------------------------|-0----------------------|------------------------|



|------------------------|
|------0----------2------|
|----0---0----------0----|
|--------------2---------|
|-----------0------------|
|-0----------------------|


then you start again wher there is  --|||--  
.....   this tab aint finished yet..ill just update it later
Comments