Jerks - Squats Chords & Tabs

 

Squats Chords & Tabs

Jerks Chords & Tabs

Version: 1 Type: Tab 0 ratings
1 star 2 stars 3 stars 4 stars 5 stars
comments

Squats Tab

The Jerks - The Squats
Tabbed By - Zac Mckenna

Intro - Sax
E------------------------------------------------|
B------------------------------------------------|
G------------------------------------------------|
D---3----3-5-7-5-3-5-3--------3----3-5-7-5-3-5---|
A-3--------------------5----3--------------------|
E------------------------------------------------|

Or
[ Tab from: http://www.guitartabs.cc/tabs/j/jerks/squats_tab.html ]
E-----------------------------------------------|
B-----------------------------------------------|
G----------0-2-0---0-----------------0-2-0---0--|
D---3----3-------3---3-0------3----3-------3----|
A-3-------------------------3-------------------|
E-----------------------------------------------|

Verse/Chorus-
E-X-1-X-1-X-1-X-1-X-3-X-3-X-3-X-3---------------|
B-X-1-X-1-X-1-X-1-X-3-X-3-X-3-X-3---------------|
G-X-2-X-2-X-2-X-2-X-3-X-3-X-3-X-3---------------|
D-X-3-X-3-X-3-X-3-X-3-X-3-X-3-X-3---------------|
A-----------------------------------------------|
E-----------------------------------------------|

Verse/Chorus 2
E-----------------------------------------------|
B-----------------------------------------------|
G-----------------------------------------------|
D-3-3-3333--3-3-3333--5-5-5555--5-5-5555--------|
A-3-3-3333--3-3-3333--5-5-5555--5-5-5555--------|
E-1-1-1111--1-1-1111--3-3-3333--3-3-3333--------|
Comments