Jerks - Dole Queue Chords & Tabs

 

Dole Queue Chords & Tabs

Jerks Chords & Tabs

Version: 1 Type: Tab 0 ratings
1 star 2 stars 3 stars 4 stars 5 stars
comments

Dole Queue Tab

The Jerks - Dole Queue
Tabbed By - Zac Mckenna

Intro/Verse
E-----------------------------------------------------|
B-----------------------------------------------------|
G-7-7--10-10--12-12--5-5----7-7--5-5--3-3--5-5--------|
D-7-7--10-10--12-12--5-5----7-7--5-5--3-3--5-5--------|
A-5-5--8--8---10-10--3-3----5-5--3-3--1-1--3-3--------|
E-----------------------------------------------------|
[ Tab from: http://www.guitartabs.cc/tabs/j/jerks/dole_queue_tab.html ]
Chorus
E-----------------------------------------------------|
B-----------------------------------------------------|
G-7-7-7777------------10-10-10101010--12-12-12121212--|
D-7-7-7777--8-8-8888--10-10-10101010--12-12-12121212--| X4
A-5-5-5555--8-8-8888--8--8--8-8-8-8---10-10-10101010--|
E-----------6-6-6666----------------------------------|

Bridge
E-----------------------------------------------------|
B-----------------------------------------------------|
G-7---7---7--7-7-7777--7-7-7-7-7-7-7-7-7-7-7-7-7-7-7-7|
D-----------------------------------------------------|
A-5--55--55--5-5-5555--5-5-5-5-5-5-5-5-5-5-5-5-5-5-5-5|
E-----------------------------------------------------|

E------------------8-5--------------------------------|
B----------------------8-5----5-5---------------------|
G--------------------------7----7B--------------------|
D-7-7-7-7-7-7-7-7-------------------------------------|
A-----------------------------------------------------|
E-----------------------------------------------------|
Comments