Jerks - Call Out The Troops Chords & Tabs

 

Call Out The Troops Chords & Tabs

Jerks Chords & Tabs

Version: 1 Type: Tab 0 ratings
1 star 2 stars 3 stars 4 stars 5 stars
comments

Call Out The Troops Tab

The Jerks - Call Out The Troops
Tabbed By - Zac Mckenna

Intro
E---------------------------------------------|
B---------------------------------------------|
G-6--Slide--13--Slide--9----------------------|
D---------------------------------------------|
A---------------------------------------------|
E---------------------------------------------|

Verse
E---------------------------------------------|
B---------------------------------------------|
G---------------------6-6-6666-6-6-6666-------|
D-6-6-6666--2-2-2222--6-6-6666-6-6-6666-------|
A-6-6-6666--2-2-2222--4-4-4444-4-4-4444-------|
E-4-4-4444--0-0-0000--------------------------|
[ Tab from: http://www.guitartabs.cc/tabs/j/jerks/call_out_the_troops_tab.html ]
E---------------------------------------------|
B---------------------------------------------|
G---------------------6-6-6666-6--------------|
D-6-6-6666--2-2-2222--6-6-6666-6--------------|
A-6-6-6666--2-2-2222--4-4-4444-4--------------|
E-4-4-4444--0-0-0000--------------------------|

Chorus
E---------------------------------------------|
B---------------------------------------------|
G-44444444--66666666--------------------------|
D-44444444--66666666--66666666--22222222------|
A-22222222--44444444--66666666--22222222------|
E---------------------44444444--00000000------|

Bridge
E---------------------------------------------|
B---------------------------------------------|
G---------------------4-4-4444--44-4-44-4-----|
D-6-6-6666--2-2-2222--4-4-4444--44-4-44-4-----|
A-6-6-6666--2-2-2222--2-2-2222--22-2-22-2-----|
E-4-4-4444--0-0-0000--------------------------|

Outro
E---------------------------------------------|
B---------------------------------------------|
G---------------------------------------------|
D-6--------6--------6-------------------------|
A-6--Ring--6--Ring--6-------------------------|
E-4--------4--------4-------------------------|
Comments