Jerks - Afghan Bombs Chords & Tabs

 

Afghan Bombs Chords & Tabs

Jerks Chords & Tabs

Version: 1 Type: Tab 0 ratings
1 star 2 stars 3 stars 4 stars 5 stars
comments

Afghan Bombs Tab

The Jerks - Afgan Bombs
Tabbed By - Zac Mckenna

Intro/Chorus
E----------------------------------------------|
B----------------------------------------------|
G-8-8-8888----------7--------------------------|
D-8-8-8888----10-8--7----8-8-8888-8-8-8--------|
A-6-6-6666----10-8--5----8-8-8888-8-8-8--------|
E-------------8--6-------6-6-6666-6-6-6--------|
[ Tab from: http://www.guitartabs.cc/tabs/j/jerks/afghan_bombs_tab.html ]
Verse
E-----------------Palm--Muted------------------|
B----------------------------------------------|
G-----------10-10-10101010-8-8-8888------------|
D-8-8-8888--10-10-10101010-8-8-8888--8-8-8888--|
A-8-8-8888--8--8--8-8-8-8--6-6-6666--8-8-8888--|
E-6-6-6666---------------------------6-6-6666--|

Bridge
E----------------------------------------------|
B-----------9-S-11-----------------------------|
G----------------6-H-8-------------------------|
D-6----6----6----6---------Pick--Slide---------|
A-6----6----6----6-----------------------------|
E-4----4----4----4-----------------------------|
Comments