Jeremy Manongdo - Already In Love Chords & Tabs

 

Already In Love Chords & Tabs

Jeremy Manongdo Chords & Tabs

Version: 1 Type: Tab 0 ratings
1 star 2 stars 3 stars 4 stars 5 stars
comments

Already In Love Tab

   
Title: Already in  Love
By: Passion(Jeremy Manongdo)
Tabbed by:RaidLink
Email:weexor@gmail.com

Tuning: E A D G B E

| /  slide up
| \  slide down
| h  hammer-on
| p  pull-off
| ~  vibrato
| +  harmonic
| x  Mute note

I finally revised it.
Its my last changes for my first tab.


Intro: 0:00 (1x)


   +    +    +    +    +    +    +    +    +    +    +    +  
e|-------------------|-------------------|-------------------|
B|-------4h5p4--4----|-3--2--------------|-------------2-----|
G|-----4--------4-4--|-3--2--------2h4p2-|---------2------2--|
D|---6----------4-4--|-3--2------2-------|------2----2----2--|
A|-4-----------------|-------------------|-------------------|
E|--------------4----|-3--2--------------|--2-2---------2---2|

   +    +    +    +    +    +    +    +    +    +    +    +  
e|-----------x-------|---------------2/4-|-------------4-----|
B|------5----x--4----|-3--2------2-------|---(2)---2---------|
G|------4----x--4----|-3--2--------------|-------------------|
D|------6----x--4----|-3--2--------------|-------------------|
A|-4---------x-------|-------------------|-------------------|
E|-----------x--4----|-3--2--------------|-------------------|
	
   +    +    +    +    +    +    +    +    +    +    +    +  
e|-----------x-------|--------------x----|-------------------|
B|--------5--x--4-4--|-1---2-----2--x--2-|-2-----------------|
G|-----4--4--x--4-4--|-1---2-----2--x--2-|-2--------2h4p2----|
D|---6-------x--4-4--|-1---2-----2--x--2-|-2----2---------2--|
A|-4---------x-------|--------------x----|-------------------|
E|-----------x--4-4--|-1---2-----2--x--2-|-2-----------------|

   +    +    +    +    +    +    +    +     +    +    +    +  
e|--------4--x-------|-------------(x)----|-7/9--/9b-9-9--\7-|
B|-----------x--4-4--|--3--2----2--(x)----|-7/9--/9b--9-9-\7-|
G|-----4-----x--4-4--|--3--2----2--(x)----|------------------|
D|---6-------x--4-4--|--3--2----2--(x)----|------------------|
A|-4---------x-------|-------------(x)----|------------------|
E|-----------x--4-4--|--3--2--2----(x)----|------------------|



Verse 1: 0:30 (2x)

Never thought that I'd be so weak
Never thought that I'd let my feelings free
She's the girl in the pictures
Sweet mystery
I hid my heart long ago
Why did this have to happen to me
I know this is special

Pre Chorus: 1:00 (1x)
Cuz the way she makes me feel
Oh girl it's so special
The way we keep it real
The only problem that I have
She's in love with another man.



Chorus: 1:14  (1x)

Why does it seem like every time I open my heart
She's Already in Love
Wishin' one day I'd be the lucky man
Being with you is all I'm thinkin' of
Now I'm not saying you should leave your man
Tell me to go and girl I'll understand
Let me know am I wasting my time
And if so then I'll leave (I'll leave)



Verse 2: 1:47 (2x)

   +    +    +    +    +    +    +    +    +    +    +    +  
e|-------4-----------|---------------------|-----------------|
B|-------5------4----|------------3--2-2---|----2/-----------|
G|-----4--------4----|------------3--2-2---|-2--2/-----------|
D|---6----------4----|------------3--2-2---|-2--2/-----------|
A|-4-----------------|---------------------|-----------------|
E|--------------4----|------------3--2-2---|----2/-----------|

   +    +    +    +    +    +    +    +    +    +    +    +  
e|-------4---x-------|-x-------------------|-----------------|
B|-------5---x--4--4-|-x---3--2---2--------|-----------------|
G|-----4-----x--4--4-|-x---3--2---2--------|------2h4p2------|
D|---6-------x--4----|-x---3--2---2--------|-------------2---|
A|-4---------x-------|-x-------------------|-----------------|
E|-----------x--4--4-|-x---3--2---2-----2--|-2---------------|

   +    +    +    +    +    +    +    +    +    +    +    +  
e|-----------x-------|-x------------x----|-------------------|
B|--------5--x-4--4--|-x---2-----2--x--2-|--2-------2--------|
G|-----4--4--x-4--4--|-x---2-----2--x--2-|--2-------2--------|
D|---6-------x-4--4--|-x---2-----2--x--2-|--2-------2--------|
A|-4---------x-------|--------------x----|-------------------|
E|-----------x-4--4--|-x---2-----2--x--2-|--2-------2--------|

   +    +    +    +    +    +    +    +     +    +    +    +  
e|--------4--x-------|-------------(x)----|------------------|
B|--------5--x--4-4--|--3--2----2--(x)----|------------------|
G|-----4-----x--4-4--|--3--2----2--(x)----|----------2h4p2---|
D|---6-------x--4-4--|--3--2----2--(x)----|----------------2-|
A|-4---------x-------|-------------(x)----|------------------|
E|-----------x--4-4--|--3--2--2----(x)----|-2---2------------|

Girl I know we spend hours on the phone
Talkin' bout the. . . .
And in the back of my mind
It's him you're really thinkin' bout right?
Girl it feels so right
At times it feels so wrong
but hope is what keeps me strong
Just the fact you said one day we'd be together
That's what keeps me goin' on.


Pre-Chorus: 2:14 (1x)

   +    +    +    +    +    +    +    +    +    +    +    +  
e|-------------------|-------------------|-------------------|
B|-------4h5p4--4----|-3--2--------------|-------------2-----|
G|-----4--------4-4--|-3--2--------2h4p2-|---------2------2--|
D|---6----------4-4--|-3--2------2-------|------2----2----2--|
A|-4-----------------|-------------------|-------------------|
E|--------------4----|-3--2--------------|--2-2---------2---2|
[ Tab from: http://www.guitartabs.cc/tabs/j/jeremy_manongdo/already_in_love_tab.html ]
   +    +    +    +    +    +    +    +    +    +    +    +  
e|-----------x-------|---------------2/4-|-------------4-----|
B|------5----x--4----|-3--2------2-------|---(2)---2---------|
G|------4----x--4----|-3--2--------------|-------------------|
D|------6----x--4----|-3--2--------------|-------------------|
A|-4---------x-------|-------------------|-------------------|
E|-----------x--4----|-3--2--------------|-------------------|
	
   +    +    +    +    +    +    +    +    +    +    +    +  
e|-----------x-------|--------------x----|-------------------|
B|--------5--x--4-4--|-1---2-----2--x--2-|-2-----------------|
G|-----4--4--x--4-4--|-1---2-----2--x--2-|-2--------2h4p2----|
D|---6-------x--4-4--|-1---2-----2--x--2-|-2----2---------2--|
A|-4---------x-------|--------------x----|-------------------|
E|-----------x--4-4--|-1---2-----2--x--2-|-2-----------------|

   +    +    +    +    +    +    +    +     +    +    +    +  
e|--------4--x-------|-------------(x)----|-7/9--/9b-9-9--\7-|
B|-----------x--4-4--|--3--2----2--(x)----|-7/9--/9b--9-9-\7-|
G|-----4-----x--4-4--|--3--2----2--(x)----|------------------|
D|---6-------x--4-4--|--3--2----2--(x)----|------------------|
A|-4---------x-------|-------------(x)----|------------------|
E|-----------x--4-4--|--3--2--2----(x)----|------------------|


I know this is special
Cuz the way you make me feel
Oh girl it's so special
The way we keep it real
The only problem that I have
She's in love with another man.


Chorus: 2:15 (1x)

Why does it seem like every time I open my heart
She's Already in Love
Wishin' one day I'd be the lucky man
Being with you is all I'm thinkin' of
Now I'm not saying you should leave your man
Tell me to go and girl I'll understand
Let me know am I wasting my time
And if so then I'll leave (I'll leave)


Bridge: 3:30 (1x)

   +    +    +    +    +    +    +    +    +    +    +    +  
e|-----------x-------|----x--------------|-------------------|
B|--------7--x--5----|-5--x-----5--5-----|-4h5p4-4--2--------|
G|-----4--4--x--4----|-4--x-----4--4-----|-4-----4--2-2h4p2--|
D|---6-------x-------|----x--------------|----------2-------2|
A|-4---------x--4----|-4--x-----4--4-----|-------------------|
E|-----------x-------|----x--------------|-4-----4--2--------|

   +    +    +    +    +    +    +    +    +    +    +    +  
e|-----------x-------|----x--------------|----x--------------|
B|--------7--x--5----|-5--x---5---4h5p4--|-4--x----2-----2---|
G|-----4--4--x--4----|-4--x---4---4------|-4--x----2-----2---|
D|---6-------x-------|----x--------------|----x----2-----2---|
A|-4---------x--4----|-4--x-4-4----------|----x--------------|
E|-----------x-------|----x-------4------|-4--x----2-----2---|

   +    +    +    +    +    +    +    +    +    +    +    +  
e|-----------x-------|----x--------------|-------------------|
B|--------7--x--5----|-5--x---5---4h5p4--|-3---2---2----2----|
G|-----4--4--x--4----|-4--x---4---4------|-3---2---2----2----|
D|---6-------x-------|----x--------------|-3---2---2----2----|
A|-4---------x--4----|-4--x-4-4----------|-------------------|
E|-----------x-------|----x-------4------|-3---2---2----2----|

   +    +    +    +    +    +    +    +    +    +    +    +  
e|-----------x-------|----x--------------|-------------------|
B|--------7--x--5----|-5--x---5---4h5p4--|-4----2---2/-------|
G|-----4--4--x--4----|-4--x---4---4------|-4----2---2/-------|
D|---6-------x-------|----x--------------|------2---2/-------|
A|-4---------x--4----|-4--x-4-4----------|-------------------|
E|-----------x-------|----x-------4------|-4----2---2/-------|

I'm not the type of man to bring confrontation
I'm not trying to steal you away
Girl this game we're playing is dangerous
Cuz in the end someone has to pay
And I know you two got somethin' special
So Ima let you be
Thanks for all the moments that we've shared
And for setting my heart free.

Chorus: 4:00 (1x)

   +    +    +    +    +    +    +    +    +    +    +    +  
e|-------------------|-------------------|-------------------|
B|-------4h5p4--4----|-3--2--------------|-------------2-----|
G|-----4--------4-4--|-3--2--------2h4p2-|---------2------2--|
D|---6----------4-4--|-3--2------2-------|------2----2----2--|
A|-4-----------------|-------------------|-------------------|
E|--------------4----|-3--2--------------|--2-2---------2---2|

   +    +    +    +    +    +    +    +    +    +    +    +  
e|-----------x-------|---------------2/4-|-------------4-----|
B|------5----x--4----|-3--2------2-------|---(2)---2---------|
G|------4----x--4----|-3--2--------------|-------------------|
D|------6----x--4----|-3--2--------------|-------------------|
A|-4---------x-------|-------------------|-------------------|
E|-----------x--4----|-3--2--------------|-------------------|
	
   +    +    +    +    +    +    +    +    +    +    +    +  
e|-----------x-------|--------------x----|-------------------|
B|--------5--x--4-4--|-1---2-----2--x--2-|-2-----------------|
G|-----4--4--x--4-4--|-1---2-----2--x--2-|-2--------2h4p2----|
D|---6-------x--4-4--|-1---2-----2--x--2-|-2----2---------2--|
A|-4---------x-------|--------------x----|-------------------|
E|-----------x--4-4--|-1---2-----2--x--2-|-2-----------------|

   +    +    +    +    +    +    +    +     +    +    +    +  
e|--------4--x-------|-------------(x)----|-7/9--/9b-9-9--\7-|
B|-----------x--4-4--|--3--2----2--(x)----|-7/9--/9b--9-9-\7-|
G|-----4-----x--4-4--|--3--2----2--(x)----|------------------|
D|---6-------x--4-4--|--3--2----2--(x)----|------------------|
A|-4---------x-------|-------------(x)----|------------------|
E|-----------x--4-4--|--3--2--2----(x)----|------------------|

Why does it seem like every time I open my heart
She's Already in Love
Wishin' one day I'd be the lucky man
Being with you is all I'm thinkin' of
Now I'm not saying you should leave your man
Tell me to go and girl I'll understand
Let me know am I wasting my time
And if so then I'll leave (I'll leave)

Outro: 5:00 (1x)
   +    +    +    +  
e|------------------|
B|-------4h5p4------|
G|-----4------------|
D|---6--------------|
A|-4----------------|
E|------------------|
Comments