Jeremiah Freed - Wait For Me Chords & Tabs

 

Wait For Me Chords & Tabs

Jeremiah Freed Chords & Tabs

Version: 1 Type: Tab 0 ratings
1 star 2 stars 3 stars 4 stars 5 stars
comments

Wait For Me Tab

   
-------------------------------------------------------------------------------
			     Wait For Me - Jeremiah Freed
-------------------------------------------------------------------------------
Tabbed by: SKooL-z
Email: skool_z@hotmail.com

Tuning: Half-Step Down 

Listen to the song to get the rythym


Intro
e|-------------0---------------0-----0-------0-0-0-0-0----------0-----0------|
B|--------1/2-----2p0----------0-----0-------2b2b2b2b2bp0-------0-----0------|
G|----2---------------2--------0-----0----2---------------------0-----0------|
D|----2-----------------4--22-----2-------2-----------------22-----2---------|
A|----0--------------------22-----2-------0-----------------22-----2---------|
E|-3b----------------------00-----0----3b-------------------00-----0---------|

e|----------------0-----0----------------------------------0-----------------|
B|--------3b------0-----0---------------0-0----------------0-----------------|
G|----2---2b------0-----0-----2---2/4-4-----4-2-0----------2-----------------|
D|----2-------22-----2--------2-------------------2--------2-----------------|
A|----0-------22-----2--------0---------------------4-2-0--0-----------------|
E|-3b---------00-----0-----3b------------------------------------------------|

[ Tab from: http://www.guitartabs.cc/tabs/j/jeremiah_freed/wait_for_me_tab.html ]
Verse
e|-000000--000000--000000--000000--------------------------------------------|
B|-222322--000000--222322--000000--------------------------------------------|
G|-222222--111111--222222--111211--------------------------------------------|
D|-222222--222222--222222--222222--------------------------------------------|
A|-000000--222222--000000--222222--------------------------------------------|
E|---------000000----------000000--------------------------------------------|


Pre-Chorus
e|--------00000--------------------------------------------------------------|
B|--------33333--------------------------------------------------------------|
G|--------22222---2222-------------------------------------------------------|
D|-4444-----------2222---222222----------------------------------------------|
A|-4444-----------0000---222222----------------------------------------------|
E|-2222------------------000000----------------------------------------------|


Chorus
e|---------------------00000-------------------------------------------------|
B|---------------------33333-------------------------------------------------|
G|---------------222---22222-------------------------------------------------|
D|-444---22222---222---------------------------------------------------------|
A|-444---22222---000---------------------------------------------------------|
E|-222---00000---------------------------------------------------------------|




| /  slide 
| b  bend
| h  hammer-on
| p  pull-off
| ~  vibrato
| +  harmonic
| x  Mute note
===============================================================================
Comments