Jeremiah Freed - Dont Go Hungry Chords & Tabs

 

Dont Go Hungry Chords & Tabs

Jeremiah Freed Chords & Tabs

Version: 1 Type: Tab 0 ratings
1 star 2 stars 3 stars 4 stars 5 stars
comments

Dont Go Hungry Tab

   
-------------------------------------------------------------------------------
			     Don't Go Hungry - Jeremiah Freed
-------------------------------------------------------------------------------
Tabbed by: SKooL-z
Email: skool_z@hotmail.com

Tuning: Half-Step Down 

Listen to the song to get the rythym


Intro/Chorus
e|-------------------------8-------8-------8-------8-------------------------|
B|-8-8-7b--------------------8-------8-------8-------8-----------------------|
G|-9-9-7b-5-------5h7--10------10------10------10------10--------------------|
D|----------7-5h7------------------------------------------------------------|
A|---------------------------------------------------------------------------|
E|---------------------------------------------------------------------------|


Verse
e|---------------------------------------------------------------------------|
B|---------------------------------------------------------------------------|
G|-5-5x55x555----101010x-1010xx---8888---------------------------------------|
D|-5-5x55x555----101010x-1010xx---8888---------------------------------------|
A|-3-3x33x333----8-8-8-x-8-8-xx---6666---------------------------------------|
E|---------------------------------------------------------------------------|

[ Tab from: http://www.guitartabs.cc/tabs/j/jeremiah_freed/dont_go_hungry_tab.html ]
Interlude
e|---------------------------------------------------------------------------|
B|---------------------------------------------------------------------------|
G|-88xx-1010xx-88--5---------------------------------------------------------|
D|-88xx-1010xx-88--5---------------------------------------------------------|
A|-66xx-8-8-xx-66--3---------------------------------------------------------|
E|---------------------------------------------------------------------------|


e|-333333333333--0000000000--------------------------------------------------|
B|-333333333333--0000000000--111111111111------------------------------------|
G|-000000000000--2222222222--------------------------------------------------|
D|-000000000000--2222222222--222222222222------------------------------------|
A|-222222222222--0000000000--333333333333------------------------------------|
E|-333333333333--------------------------------------------------------------|


Outro
e|---------------------------------------------------------------------------|
B|---------------------------------------------------------------------------|
G|-5-5x55x555----101010x-1010xx---8888---------------------------------------|
D|-5-5x55x555----101010x-1010xx---8888---------------------------------------|
A|-3-3x33x333----8-8-8-x-8-8-xx---6666---------------------------------------|
E|---------------------------------------------------------------------------|


e|---------------------------------------------------------------------------|
B|---------------------------------------------------------------------------|
G|-5-5x55x555----101010x-1010xx---8--3---------------------------------------|
D|-5-5x55x555----101010x-1010xx---8--3---------------------------------------|
A|-3-3x33x333----8-8-8-x-8-8-xx---6--1---------------------------------------|
E|---------------------------------------------------------------------------|


| /  slide 
| b  bend
| h  hammer-on
| p  pull-off
| ~  vibrato
| +  harmonic
| x  Mute note
===============================================================================
Comments