Jeremiah Freed - Again Chords & Tabs

 

Again Chords & Tabs

Jeremiah Freed Chords & Tabs

Version: 3 Type: Tab 0 ratings
1 star 2 stars 3 stars 4 stars 5 stars
comments

Again Tab

Title: Again
Artist: Jeremiah Freed
Album: Jeremiah Freed
Submitted By: TobyMan5150
Tuning: Regular

   This is off the new self titled album from Jeremiah Freed.
Now, I don't have the solo or the bridge chords, but i do
have the rest somewhat. Enjoi=)
[ Tab from: http://www.guitartabs.cc/tabs/j/jeremiah_freed/again_tab_ver_3.html ]
Intro
-------------------------------------------------------------|
-------------------------------------------------------------|
---4--------3-1-6--------------------------------------------|
--0--3--3--3--0--3--3---3------------------------------------|
------5--3--0--3--1--3---------------------------------------|
-3-----------------------------------------------------------|
"She Walks through an open door.."

Chorus
-------------------------------------------------------------|
-------------------------------------------------------------|
-5-5-5-5-------------8-8-8-8---------------------------------|
-5-5-5-5--6-6-6-6-6--8-8-8-8--8-8-8-8-8----------------------|
-3-3-3-3--6-6-6-6-6--6-6-6-6--8-8-8-8-8----------------------|
----------4-4-4-4-4-----------6-6-6-6-6----------------------|

"Cause I know that it's the same, when they all come back again.."

questions, comments, concerns, corrections, put downs, whatever,
dont email me.
Toby
Comments