Jenoah - Ex Suits Chords & Tabs

 

Ex Suits Chords & Tabs

Jenoah Chords & Tabs

Version: 1 Type: Tab 0 ratings
1 star 2 stars 3 stars 4 stars 5 stars
comments

Ex Suits Tab

This is my first tab ever, so be patient. Jenoah is a band from California on Drive
Thru Records. Just remember, "Morning is when Jenoah gets up"! If this is hard to view,
copy and paste it into a word editing program on Times New Roman with a font size 12.

[ Tab from: http://www.guitartabs.cc/tabs/j/jenoah/ex_suits_tab.html ]
|-------------------------------------------------------------------------------------------|
|-------------------------------------------------------------------------------------------|
|--12-11---9-7------------12-11---9-7-----------12-11---9-7--------12-11---9-7--------------|
|------------------9-7----------------------9-7--------------------9-7------------------9~--|
|-------------------------------------------------------------------------------------------|
|-------------------------------------------------------------------------------------------|
On the 12 and 11, and the first 9 and 7, pull off to zero in between notes.

|------------------------------------------------------------------------|
|------------------------------------------------------------------------|
|--7-7----7-7-7-7----7-7----7-7-7-7----5-5----5-5-5-5----5-5----5-5-5-5--|
|--9-9----9-9-9-9----9-9----9-9-9-9----7-7----7-7-7-7----7-7----7-7-7-7--|
|------------------------------------------------------------------------|
|------------------------------------------------------------------------|

|-------------------|
|-------------------|
|--9-9----7-7-------|
|--7-7----5-5-------|
|----------------7--|
|----------------5--|
		Hold this note.

	Probably more to come later, not sure. ROCK ON!
Comments